  0
SECTION
  2
HEADER
  9
$ACADVER
  1
AC1015
  9
$ACADMAINTVER
 70
    10
  9
$DWGCODEPAGE
  3
ANSI_932
  9
$INSBASE
 10
0.0
 20
0.0
 30
0.0
  9
$EXTMIN
 10
13.0
 20
8.999988
 30
0.0
  9
$EXTMAX
 10
406.0
 20
286.9999729999999
 30
0.0
  9
$LIMMIN
 10
0.0
 20
0.0
  9
$LIMMAX
 10
420.0
 20
297.0
  9
$ORTHOMODE
 70
     1
  9
$REGENMODE
 70
     1
  9
$FILLMODE
 70
     1
  9
$QTEXTMODE
 70
     0
  9
$MIRRTEXT
 70
     1
  9
$LTSCALE
 40
1.0
  9
$ATTMODE
 70
     1
  9
$TEXTSIZE
 40
0.0
  9
$TRACEWID
 40
0.05
  9
$TEXTSTYLE
  7
STANDARD
  9
$CLAYER
  8
LAY-1
  9
$CELTYPE
  6
CONTINUOUS
  9
$CECOLOR
 62
   256
  9
$CELTSCALE
 40
1.0
  9
$DISPSILH
 70
     0
  9
$DIMSCALE
 40
1.0
  9
$DIMASZ
 40
0.18
  9
$DIMEXO
 40
0.0625
  9
$DIMDLI
 40
0.38
  9
$DIMRND
 40
0.0
  9
$DIMDLE
 40
0.0
  9
$DIMEXE
 40
0.18
  9
$DIMTP
 40
0.0
  9
$DIMTM
 40
0.0
  9
$DIMTXT
 40
0.18
  9
$DIMCEN
 40
0.09
  9
$DIMTSZ
 40
0.0
  9
$DIMTOL
 70
     0
  9
$DIMLIM
 70
     0
  9
$DIMTIH
 70
     1
  9
$DIMTOH
 70
     1
  9
$DIMSE1
 70
     0
  9
$DIMSE2
 70
     0
  9
$DIMTAD
 70
     0
  9
$DIMZIN
 70
     0
  9
$DIMBLK
  1

  9
$DIMASO
 70
     1
  9
$DIMSHO
 70
     1
  9
$DIMPOST
  1

  9
$DIMAPOST
  1

  9
$DIMALT
 70
     0
  9
$DIMALTD
 70
     2
  9
$DIMALTF
 40
25.4
  9
$DIMLFAC
 40
1.0
  9
$DIMTOFL
 70
     0
  9
$DIMTVP
 40
0.0
  9
$DIMTIX
 70
     0
  9
$DIMSOXD
 70
     0
  9
$DIMSAH
 70
     0
  9
$DIMBLK1
  1

  9
$DIMBLK2
  1

  9
$DIMSTYLE
  2
STANDARD
  9
$DIMCLRD
 70
     0
  9
$DIMCLRE
 70
     0
  9
$DIMCLRT
 70
     0
  9
$DIMTFAC
 40
1.0
  9
$DIMGAP
 40
0.09
  9
$DIMJUST
 70
     0
  9
$DIMSD1
 70
     0
  9
$DIMSD2
 70
     0
  9
$DIMTOLJ
 70
     1
  9
$DIMTZIN
 70
     0
  9
$DIMALTZ
 70
     0
  9
$DIMALTTZ
 70
     0
  9
$DIMUPT
 70
     0
  9
$DIMDEC
 70
     4
  9
$DIMTDEC
 70
     4
  9
$DIMALTU
 70
     2
  9
$DIMALTTD
 70
     2
  9
$DIMTXSTY
  7
STANDARD
  9
$DIMAUNIT
 70
     0
  9
$DIMADEC
 70
     0
  9
$DIMALTRND
 40
0.0
  9
$DIMAZIN
 70
     0
  9
$DIMDSEP
 70
    46
  9
$DIMATFIT
 70
     3
  9
$DIMFRAC
 70
     0
  9
$DIMLDRBLK
  1

  9
$DIMLUNIT
 70
     2
  9
$DIMLWD
 70
    -2
  9
$DIMLWE
 70
    -2
  9
$DIMTMOVE
 70
     0
  9
$LUNITS
 70
     2
  9
$LUPREC
 70
     4
  9
$SKETCHINC
 40
0.1
  9
$FILLETRAD
 40
0.0
  9
$AUNITS
 70
     0
  9
$AUPREC
 70
     0
  9
$MENU
  1
acad
  9
$ELEVATION
 40
0.0
  9
$PELEVATION
 40
0.0
  9
$THICKNESS
 40
0.0
  9
$LIMCHECK
 70
     0
  9
$CHAMFERA
 40
0.0
  9
$CHAMFERB
 40
0.0
  9
$CHAMFERC
 40
0.0
  9
$CHAMFERD
 40
0.0
  9
$SKPOLY
 70
     0
  9
$TDCREATE
 40
2452142.442313877
  9
$TDUCREATE
 40
2452142.067313877
  9
$TDUPDATE
 40
2452159.047528935
  9
$TDUUPDATE
 40
2452158.672528935
  9
$TDINDWG
 40
0.0387217940
  9
$TDUSRTIMER
 40
0.0387214236
  9
$USRTIMER
 70
     1
  9
$ANGBASE
 50
0.0
  9
$ANGDIR
 70
     0
  9
$PDMODE
 70
     0
  9
$PDSIZE
 40
0.0
  9
$PLINEWID
 40
0.0
  9
$SPLFRAME
 70
     0
  9
$SPLINETYPE
 70
     6
  9
$SPLINESEGS
 70
     8
  9
$HANDSEED
  5
2E3
  9
$SURFTAB1
 70
     6
  9
$SURFTAB2
 70
     6
  9
$SURFTYPE
 70
     6
  9
$SURFU
 70
     6
  9
$SURFV
 70
     6
  9
$UCSBASE
  2

  9
$UCSNAME
  2

  9
$UCSORG
 10
0.0
 20
0.0
 30
0.0
  9
$UCSXDIR
 10
1.0
 20
0.0
 30
0.0
  9
$UCSYDIR
 10
0.0
 20
1.0
 30
0.0
  9
$UCSORTHOREF
  2

  9
$UCSORTHOVIEW
 70
     0
  9
$UCSORGTOP
 10
0.0
 20
0.0
 30
0.0
  9
$UCSORGBOTTOM
 10
0.0
 20
0.0
 30
0.0
  9
$UCSORGLEFT
 10
0.0
 20
0.0
 30
0.0
  9
$UCSORGRIGHT
 10
0.0
 20
0.0
 30
0.0
  9
$UCSORGFRONT
 10
0.0
 20
0.0
 30
0.0
  9
$UCSORGBACK
 10
0.0
 20
0.0
 30
0.0
  9
$PUCSBASE
  2

  9
$PUCSNAME
  2

  9
$PUCSORG
 10
0.0
 20
0.0
 30
0.0
  9
$PUCSXDIR
 10
1.0
 20
0.0
 30
0.0
  9
$PUCSYDIR
 10
0.0
 20
1.0
 30
0.0
  9
$PUCSORTHOREF
  2

  9
$PUCSORTHOVIEW
 70
     0
  9
$PUCSORGTOP
 10
0.0
 20
0.0
 30
0.0
  9
$PUCSORGBOTTOM
 10
0.0
 20
0.0
 30
0.0
  9
$PUCSORGLEFT
 10
0.0
 20
0.0
 30
0.0
  9
$PUCSORGRIGHT
 10
0.0
 20
0.0
 30
0.0
  9
$PUCSORGFRONT
 10
0.0
 20
0.0
 30
0.0
  9
$PUCSORGBACK
 10
0.0
 20
0.0
 30
0.0
  9
$USERI1
 70
     0
  9
$USERI2
 70
     0
  9
$USERI3
 70
     0
  9
$USERI4
 70
     0
  9
$USERI5
 70
     0
  9
$USERR1
 40
0.0
  9
$USERR2
 40
0.0
  9
$USERR3
 40
0.0
  9
$USERR4
 40
0.0
  9
$USERR5
 40
0.0
  9
$WORLDVIEW
 70
     1
  9
$SHADEDGE
 70
     3
  9
$SHADEDIF
 70
    70
  9
$TILEMODE
 70
     1
  9
$MAXACTVP
 70
    16
  9
$PINSBASE
 10
0.0
 20
0.0
 30
0.0
  9
$PLIMCHECK
 70
     0
  9
$PEXTMIN
 10
1.000000000000000E+20
 20
1.000000000000000E+20
 30
1.000000000000000E+20
  9
$PEXTMAX
 10
-1.000000000000000E+20
 20
-1.000000000000000E+20
 30
-1.000000000000000E+20
  9
$PLIMMIN
 10
0.0
 20
0.0
  9
$PLIMMAX
 10
12.0
 20
9.0
  9
$UNITMODE
 70
     0
  9
$VISRETAIN
 70
     0
  9
$PLINEGEN
 70
     1
  9
$PSLTSCALE
 70
     0
  9
$TREEDEPTH
 70
  3020
  9
$CMLSTYLE
  2
STANDARD
  9
$CMLJUST
 70
     0
  9
$CMLSCALE
 40
1.0
  9
$PROXYGRAPHICS
 70
     1
  9
$MEASUREMENT
 70
     0
  9
$CELWEIGHT
370
    -1
  9
$ENDCAPS
280
     0
  9
$JOINSTYLE
280
     0
  9
$LWDISPLAY
290
     0
  9
$INSUNITS
 70
     0
  9
$HYPERLINKBASE
  1

  9
$STYLESHEET
  1

  9
$XEDIT
290
     1
  9
$CEPSNTYPE
380
     0
  9
$PSTYLEMODE
290
     1
  9
$FINGERPRINTGUID
  2
{BE54BC1C-A66A-40FE-8EAB-8080D21833CC}
  9
$VERSIONGUID
  2
{8AFF4D4B-9EAD-4C32-9D07-39BB6C9B041F}
  9
$EXTNAMES
290
     1
  9
$PSVPSCALE
 40
0.0
  9
$OLESTARTUP
290
     0
  0
ENDSEC
  0
SECTION
  2
CLASSES
  0
CLASS
  1
LWPOLYLINE
  2
AcDbPolyline
  3
AutoCAD 2000
 90
    32768
280
     0
281
     1
  0
CLASS
  1
IMAGE
  2
AcDbRasterImage
  3
ISM
 90
    32895
280
     0
281
     1
  0
CLASS
  1
OLE2FRAME
  2
AcDbOle2Frame
  3
AutoCAD 2000
 90
    32768
280
     0
281
     1
  0
CLASS
  1
HATCH
  2
AcDbHatch
  3
AutoCAD 2000
 90
    32768
280
     0
281
     1
  0
CLASS
  1
DICTIONARYVAR
  2
AcDbDictionaryVar
  3
AutoCAD 2000
 90
    32768
280
     0
281
     0
  0
CLASS
  1
RASTERVARIABLES
  2
AcDbRasterVariables
  3
ISM
 90
    32768
280
     0
281
     0
  0
CLASS
  1
IMAGEDEF
  2
AcDbRasterImageDef
  3
ISM
 90
    32768
280
     0
281
     0
  0
CLASS
  1
IMAGEDEF_REACTOR
  2
AcDbRasterImageDefReactor
  3
ISM
 90
    32769
280
     0
281
     0
  0
CLASS
  1
IDBUFFER
  2
AcDbIdBuffer
  3
AutoCAD 2000
 90
    32768
280
     0
281
     0
  0
CLASS
  1
SPATIAL_FILTER
  2
AcDbSpatialFilter
  3
AutoCAD 2000
 90
    32768
280
     0
281
     0
  0
CLASS
  1
XRECORD
  2
AcDbXrecord
  3
AutoCAD 2000
 90
    32768
280
     0
281
     0
  0
CLASS
  1
SORTENTSTABLE
  2
AcDbSortentsTable
  3
AutoCAD 2000
 90
    32768
280
     0
281
     0
  0
CLASS
  1
LAYER_INDEX
  2
AcDbLayerIndex
  3
AutoCAD 2000
 90
    32768
280
     0
281
     0
  0
CLASS
  1
SPATIAL_INDEX
  2
AcDbSpatialIndex
  3
AutoCAD 2000
 90
    32768
280
     0
281
     0
  0
CLASS
  1
OBJECT_PTR
  2
CAseDLPNTableRecord
  3
ASE-LPNTableRecord
 90
    32769
280
     0
281
     0
  0
CLASS
  1
LAYOUT
  2
AcDbLayout
  3
AutoCAD 2000
 90
        0
280
     0
281
     0
  0
CLASS
  1
PLOTSETTINGS
  2
AcDbPlotSettings
  3
AutoCAD 2000
 90
    32768
280
     0
281
     0
  0
CLASS
  1
ACDBDICTIONARYWDFLT
  2
AcDbDictionaryWithDefault
  3
AutoCAD 2000
 90
        0
280
     0
281
     0
  0
CLASS
  1
ACDBPLACEHOLDER
  2
AcDbPlaceHolder
  3
AutoCAD 2000
 90
        0
280
     0
281
     0
  0
CLASS
  1
VBA_PROJECT
  2
AcDbVbaProject
  3
acadvba
 90
    32768
280
     0
281
     0
  0
CLASS
  1
WIPEOUT
  2
AcDbWipeout
  3
WipeOut|AutoCAD Express Tool|expresstools@autodesk.com
 90
    32768
280
     0
281
     1
  0
CLASS
  1
WIPEOUTVARIABLES
  2
AcDbWipeoutVariables
  3
WipeOut|AutoCAD Express Tool|expresstools@autodesk.com
 90
    32768
280
     0
281
     0
  0
CLASS
  1
RTEXT
  2
RText
  3
RText|AutoCAD Express Tool|expresstools@autodesk.com
 90
    32768
280
     0
281
     1
  0
CLASS
  1
ARCALIGNEDTEXT
  2
AcDbArcAlignedText
  3
ATEXT|AutoCAD Express Tool|expresstools@autodesk.com
 90
    32768
280
     0
281
     1
  0
ENDSEC
  0
SECTION
  2
TABLES
  0
TABLE
  2
VPORT
  5
7
330
0
100
AcDbSymbolTable
 70
     3
  0
VPORT
  5
2E2
330
7
100
AcDbSymbolTableRecord
100
AcDbViewportTableRecord
  2
*Active
 70
     0
 10
0.0
 20
0.0
 11
1.0
 21
1.0
 12
209.5033273933263
 22
148.0014960522548
 13
0.0
 23
0.0
 14
1.0
 24
1.0
 15
0.0
 25
0.0
 16
0.0
 26
0.0
 36
1.0
 17
0.0
 27
0.0
 37
0.0
 40
280.7643502434514
 41
1.76847290640394
 42
50.0
 43
0.0
 44
0.0
 50
0.0
 51
0.0
 71
     0
 72
   100
 73
     1
 74
     1
 75
     0
 76
     0
 77
     0
 78
     0
281
     0
 65
     1
110
0.0
120
0.0
130
0.0
111
1.0
121
0.0
131
0.0
112
0.0
122
1.0
132
0.0
 79
     0
146
0.0
  0
ENDTAB
  0
TABLE
  2
LTYPE
  5
4
330
0
100
AcDbSymbolTable
 70
     5
  0
LTYPE
  5
11
330
4
100
AcDbSymbolTableRecord
100
AcDbLinetypeTableRecord
  2
BYBLOCK
 70
     0
  3

 72
    65
 73
     0
 40
0.0
  0
LTYPE
  5
12
330
4
100
AcDbSymbolTableRecord
100
AcDbLinetypeTableRecord
  2
BYLAYER
 70
     0
  3

 72
    65
 73
     0
 40
0.0
  0
LTYPE
  5
13
330
4
100
AcDbSymbolTableRecord
100
AcDbLinetypeTableRecord
  2
CONTINUOUS
 70
     0
  3
実線
 72
    65
 73
     0
 40
0.0
  0
LTYPE
  5
1D
330
4
100
AcDbSymbolTableRecord
100
AcDbLinetypeTableRecord
  2
DASHED
 70
     0
  3
破線
 72
    65
 73
     2
 40
3.799999999999998
 49
3.0
 74
     0
 49
-0.8
 74
     0
  0
LTYPE
  5
1E
330
4
100
AcDbSymbolTableRecord
100
AcDbLinetypeTableRecord
  2
DOT
 70
     0
  3
点線
 72
    65
 73
     2
 40
2.0
 49
1.0
 74
     0
 49
-1.0
 74
     0
  0
LTYPE
  5
1F
330
4
100
AcDbSymbolTableRecord
100
AcDbLinetypeTableRecord
  2
DASHDOT
 70
     0
  3
一点鎖線
 72
    65
 73
     4
 40
25.6
 49
20.0
 74
     0
 49
-2.0
 74
     0
 49
1.6
 74
     0
 49
-2.0
 74
     0
  0
LTYPE
  5
20
330
4
100
AcDbSymbolTableRecord
100
AcDbLinetypeTableRecord
  2
DIVIDE
 70
     0
  3
二点鎖線
 72
    65
 73
     6
 40
31.2
 49
20.0
 74
     0
 49
-2.399999999999999
 74
     0
 49
2.0
 74
     0
 49
-2.399999999999999
 74
     0
 49
2.0
 74
     0
 49
-2.399999999999999
 74
     0
  0
ENDTAB
  0
TABLE
  2
LAYER
  5
2
330
0
100
AcDbSymbolTable
 70
     2
  0
LAYER
  5
14
330
2
100
AcDbSymbolTableRecord
100
AcDbLayerTableRecord
  2
0
 70
     0
 62
     7
  6
CONTINUOUS
370
    -3
390
276
  0
LAYER
  5
25
330
2
100
AcDbSymbolTableRecord
100
AcDbLayerTableRecord
  2
LAY-1
 70
     0
 62
     7
  6
CONTINUOUS
370
    -3
390
276
  0
ENDTAB
  0
TABLE
  2
STYLE
  5
3
330
0
100
AcDbSymbolTable
 70
     5
  0
STYLE
  5
17
330
3
100
AcDbSymbolTableRecord
100
AcDbTextStyleTableRecord
  2
STANDARD
 70
     0
 40
0.0
 41
1.0
 50
0.0
 71
     0
 42
0.0
  3
monotxt
  4

  0
STYLE
  5
21
330
3
100
AcDbSymbolTableRecord
100
AcDbTextStyleTableRecord
  2
EXCADSTD
 70
     0
 40
0.0
 41
1.0
 50
0.0
 71
     0
 42
0.2
  3
monotxt
  4
extfont
  0
STYLE
  5
22
330
3
100
AcDbSymbolTableRecord
100
AcDbTextStyleTableRecord
  2
EXCADVERT
 70
     4
 40
0.0
 41
1.0
 50
0.0
 71
     0
 42
0.286885
  3
monotxt
  4
extfont
  0
STYLE
  5
23
330
3
100
AcDbSymbolTableRecord
100
AcDbTextStyleTableRecord
  2
EXCADSTD2
 70
     0
 40
0.0
 41
1.0
 50
0.0
 71
     0
 42
0.2
  3
monotxt
  4
extfont
  0
STYLE
  5
24
330
3
100
AcDbSymbolTableRecord
100
AcDbTextStyleTableRecord
  2
EXCADVERT2
 70
     4
 40
0.0
 41
1.0
 50
0.0
 71
     0
 42
0.286885
  3
monotxt
  4
extfont
  0
ENDTAB
  0
TABLE
  2
VIEW
  5
5
330
0
100
AcDbSymbolTable
 70
     0
  0
ENDTAB
  0
TABLE
  2
UCS
  5
6
330
0
100
AcDbSymbolTable
 70
     0
  0
ENDTAB
  0
TABLE
  2
APPID
  5
8
330
0
100
AcDbSymbolTable
 70
     2
  0
APPID
  5
16
330
8
100
AcDbSymbolTableRecord
100
AcDbRegAppTableRecord
  2
ACAD
 70
     0
  0
APPID
  5
2B5
330
8
100
AcDbSymbolTableRecord
100
AcDbRegAppTableRecord
  2
DCO15
 70
     0
  0
ENDTAB
  0
TABLE
  2
DIMSTYLE
  5
9
330
0
100
AcDbSymbolTable
 70
     1
100
AcDbDimStyleTable
 71
     0
  0
DIMSTYLE
105
18
330
9
100
AcDbSymbolTableRecord
100
AcDbDimStyleTableRecord
  2
STANDARD
 70
     0
340
17
  0
ENDTAB
  0
TABLE
  2
BLOCK_RECORD
  5
1
330
0
100
AcDbSymbolTable
 70
     9
  0
BLOCK_RECORD
  5
A
330
1
100
AcDbSymbolTableRecord
100
AcDbBlockTableRecord
  2
*MODEL_SPACE
340
279
  0
BLOCK_RECORD
  5
B
330
1
100
AcDbSymbolTableRecord
100
AcDbBlockTableRecord
  2
*PAPER_SPACE
340
27A
  0
BLOCK_RECORD
  5
26
330
1
100
AcDbSymbolTableRecord
100
AcDbBlockTableRecord
  2
_EX_NORM
340
0
  0
BLOCK_RECORD
  5
27
330
1
100
AcDbSymbolTableRecord
100
AcDbBlockTableRecord
  2
_EX_BNORM
340
0
  0
BLOCK_RECORD
  5
28
330
1
100
AcDbSymbolTableRecord
100
AcDbBlockTableRecord
  2
_EX_BCIR
340
0
  0
BLOCK_RECORD
  5
29
330
1
100
AcDbSymbolTableRecord
100
AcDbBlockTableRecord
  2
_EX_RCIVIL
340
0
  0
BLOCK_RECORD
  5
2A
330
1
100
AcDbSymbolTableRecord
100
AcDbBlockTableRecord
  2
_EX_SLANT
340
0
  0
BLOCK_RECORD
  5
2B
330
1
100
AcDbSymbolTableRecord
100
AcDbBlockTableRecord
  2
_EX_NONE
340
0
  0
BLOCK_RECORD
  5
2C
330
1
100
AcDbSymbolTableRecord
100
AcDbBlockTableRecord
  2
_EX_CIVIL
340
0
  0
BLOCK_RECORD
  5
2D
330
1
100
AcDbSymbolTableRecord
100
AcDbBlockTableRecord
  2
_EX_WCIR
340
0
  0
ENDTAB
  0
ENDSEC
  0
SECTION
  2
BLOCKS
  0
BLOCK
  5
D
330
A
100
AcDbEntity
  8
0
100
AcDbBlockBegin
  2
*MODEL_SPACE
 70
     0
 10
0.0
 20
0.0
 30
0.0
  3
*MODEL_SPACE
  1

  0
ENDBLK
  5
E
330
A
100
AcDbEntity
  8
0
100
AcDbBlockEnd
  0
BLOCK
  5
F
330
B
100
AcDbEntity
 67
     1
  8
0
100
AcDbBlockBegin
  2
*PAPER_SPACE
 70
     0
 10
0.0
 20
0.0
 30
0.0
  3
*PAPER_SPACE
  1

  0
ENDBLK
  5
10
330
B
100
AcDbEntity
 67
     1
  8
0
100
AcDbBlockEnd
  0
BLOCK
  5
2E
330
26
100
AcDbEntity
  8
0
100
AcDbBlockBegin
  2
_EX_NORM
 70
     0
 10
0.0
 20
0.0
 30
0.0
  3
_EX_NORM
  1

  0
LINE
  5
2F
330
26
100
AcDbEntity
  8
0
  6
Continuous
 62
     0
100
AcDbLine
 10
0.0
 20
0.0
 30
0.0
 11
-1.0
 21
0.0
 31
0.0
  0
LINE
  5
30
330
26
100
AcDbEntity
  8
0
  6
Continuous
 62
     0
100
AcDbLine
 10
0.0
 20
0.0
 30
0.0
 11
-0.9607689999999999
 21
0.27735
 31
0.0
  0
LINE
  5
31
330
26
100
AcDbEntity
  8
0
  6
Continuous
 62
     0
100
AcDbLine
 10
0.0
 20
0.0
 30
0.0
 11
-0.9607689999999999
 21
-0.27735
 31
0.0
  0
ENDBLK
  5
32
330
26
100
AcDbEntity
  8
0
100
AcDbBlockEnd
  0
BLOCK
  5
33
330
27
100
AcDbEntity
  8
0
100
AcDbBlockBegin
  2
_EX_BNORM
 70
     0
 10
0.0
 20
0.0
 30
0.0
  3
_EX_BNORM
  1

  0
LINE
  5
34
330
27
100
AcDbEntity
  8
0
  6
Continuous
 62
     0
100
AcDbLine
 10
0.0
 20
0.0
 30
0.0
 11
-1.0
 21
0.0
 31
0.0
  0
LINE
  5
35
330
27
100
AcDbEntity
  8
0
  6
Continuous
 62
     0
100
AcDbLine
 10
0.0
 20
0.0
 30
0.0
 11
-0.9607689999999999
 21
0.27735
 31
0.0
  0
LINE
  5
36
330
27
100
AcDbEntity
  8
0
  6
Continuous
 62
     0
100
AcDbLine
 10
0.0
 20
0.0
 30
0.0
 11
-0.9607689999999999
 21
-0.27735
 31
0.0
  0
LINE
  5
37
330
27
100
AcDbEntity
  8
0
  6
Continuous
 62
     0
100
AcDbLine
 10
0.0
 20
0.0
 30
0.0
 11
-0.9607689999999999
 21
0.138768
 31
0.0
  0
LINE
  5
38
330
27
100
AcDbEntity
  8
0
  6
Continuous
 62
     0
100
AcDbLine
 10
0.0
 20
0.0
 30
0.0
 11
-0.9607689999999999
 21
-0.138768
 31
0.0
  0
LINE
  5
39
330
27
100
AcDbEntity
  8
0
  6
Continuous
 62
     0
100
AcDbLine
 10
-0.9607689999999999
 20
0.27735
 30
0.0
 11
-0.9607689999999999
 21
-0.27735
 31
0.0
  0
ENDBLK
  5
3A
330
27
100
AcDbEntity
  8
0
100
AcDbBlockEnd
  0
BLOCK
  5
3B
330
28
100
AcDbEntity
  8
0
100
AcDbBlockBegin
  2
_EX_BCIR
 70
     0
 10
0.0
 20
0.0
 30
0.0
  3
_EX_BCIR
  1

  0
LINE
  5
3C
330
28
100
AcDbEntity
  8
0
  6
Continuous
 62
     0
100
AcDbLine
 10
0.0
 20
0.0
 30
0.0
 11
-1.0
 21
0.0
 31
0.0
  0
CIRCLE
  5
3D
330
28
100
AcDbEntity
  8
0
  6
Continuous
 62
     0
100
AcDbCircle
 10
0.0
 20
0.0
 30
0.0
 40
0.5
  0
CIRCLE
  5
3E
330
28
100
AcDbEntity
  8
0
  6
Continuous
 62
     0
100
AcDbCircle
 10
0.0
 20
0.0
 30
0.0
 40
0.25
  0
ENDBLK
  5
3F
330
28
100
AcDbEntity
  8
0
100
AcDbBlockEnd
  0
BLOCK
  5
40
330
29
100
AcDbEntity
  8
0
100
AcDbBlockBegin
  2
_EX_RCIVIL
 70
     0
 10
0.0
 20
0.0
 30
0.0
  3
_EX_RCIVIL
  1

  0
LINE
  5
41
330
29
100
AcDbEntity
  8
0
  6
Continuous
 62
     0
100
AcDbLine
 10
0.0
 20
0.0
 30
0.0
 11
-1.0
 21
0.0
 31
0.0
  0
LINE
  5
42
330
29
100
AcDbEntity
  8
0
  6
Continuous
 62
     0
100
AcDbLine
 10
-1.0
 20
-0.25
 30
0.0
 11
0.0
 21
-0.25
 31
0.0
  0
LINE
  5
43
330
29
100
AcDbEntity
  8
0
  6
Continuous
 62
     0
100
AcDbLine
 10
-1.0
 20
-0.125
 30
0.0
 11
0.0
 21
-0.125
 31
0.0
  0
ENDBLK
  5
44
330
29
100
AcDbEntity
  8
0
100
AcDbBlockEnd
  0
BLOCK
  5
45
330
2A
100
AcDbEntity
  8
0
100
AcDbBlockBegin
  2
_EX_SLANT
 70
     0
 10
0.0
 20
0.0
 30
0.0
  3
_EX_SLANT
  1

  0
LINE
  5
46
330
2A
100
AcDbEntity
  8
0
  6
Continuous
 62
     0
100
AcDbLine
 10
0.0
 20
0.0
 30
0.0
 11
-1.0
 21
0.0
 31
0.0
  0
LINE
  5
47
330
2A
100
AcDbEntity
  8
0
  6
Continuous
 62
     0
100
AcDbLine
 10
0.7071069999999999
 20
0.7071069999999999
 30
0.0
 11
-0.7071069999999999
 21
-0.7071069999999999
 31
0.0
  0
ENDBLK
  5
48
330
2A
100
AcDbEntity
  8
0
100
AcDbBlockEnd
  0
BLOCK
  5
49
330
2B
100
AcDbEntity
  8
0
100
AcDbBlockBegin
  2
_EX_NONE
 70
     0
 10
0.0
 20
0.0
 30
0.0
  3
_EX_NONE
  1

  0
LINE
  5
4A
330
2B
100
AcDbEntity
  8
0
  6
Continuous
 62
     0
100
AcDbLine
 10
0.0
 20
0.0
 30
0.0
 11
-1.0
 21
0.0
 31
0.0
  0
ENDBLK
  5
4B
330
2B
100
AcDbEntity
  8
0
100
AcDbBlockEnd
  0
BLOCK
  5
4C
330
2C
100
AcDbEntity
  8
0
100
AcDbBlockBegin
  2
_EX_CIVIL
 70
     0
 10
0.0
 20
0.0
 30
0.0
  3
_EX_CIVIL
  1

  0
LINE
  5
4D
330
2C
100
AcDbEntity
  8
0
  6
Continuous
 62
     0
100
AcDbLine
 10
0.0
 20
0.0
 30
0.0
 11
-1.0
 21
0.0
 31
0.0
  0
LINE
  5
4E
330
2C
100
AcDbEntity
  8
0
  6
Continuous
 62
     0
100
AcDbLine
 10
-1.0
 20
0.25
 30
0.0
 11
0.0
 21
0.25
 31
0.0
  0
LINE
  5
4F
330
2C
100
AcDbEntity
  8
0
  6
Continuous
 62
     0
100
AcDbLine
 10
-1.0
 20
0.125
 30
0.0
 11
0.0
 21
0.125
 31
0.0
  0
ENDBLK
  5
50
330
2C
100
AcDbEntity
  8
0
100
AcDbBlockEnd
  0
BLOCK
  5
51
330
2D
100
AcDbEntity
  8
0
100
AcDbBlockBegin
  2
_EX_WCIR
 70
     0
 10
0.0
 20
0.0
 30
0.0
  3
_EX_WCIR
  1

  0
LINE
  5
52
330
2D
100
AcDbEntity
  8
0
  6
Continuous
 62
     0
100
AcDbLine
 10
0.0
 20
0.0
 30
0.0
 11
-1.0
 21
0.0
 31
0.0
  0
CIRCLE
  5
53
330
2D
100
AcDbEntity
  8
0
  6
Continuous
 62
     0
100
AcDbCircle
 10
0.0
 20
0.0
 30
0.0
 40
0.5
  0
ENDBLK
  5
54
330
2D
100
AcDbEntity
  8
0
100
AcDbBlockEnd
  0
ENDSEC
  0
SECTION
  2
ENTITIES
  0
LINE
  5
83
330
A
100
AcDbEntity
  8
LAY-1
  6
Continuous
 62
     3
100
AcDbLine
 10
406.0
 20
9.000011
 30
0.0
 11
406.0
 21
286.9999729999999
 31
0.0
  0
LINE
  5
84
330
A
100
AcDbEntity
  8
LAY-1
  6
Continuous
 62
     3
100
AcDbLine
 10
406.0
 20
286.9999729999999
 30
0.0
 11
13.0
 21
286.9999729999999
 31
0.0
  0
LINE
  5
85
330
A
100
AcDbEntity
  8
LAY-1
  6
Continuous
 62
     3
100
AcDbLine
 10
13.0
 20
286.9999729999999
 30
0.0
 11
13.0
 21
9.0
 31
0.0
  0
LINE
  5
86
330
A
100
AcDbEntity
  8
LAY-1
  6
Continuous
 62
     3
100
AcDbLine
 10
13.0
 20
9.0
 30
0.0
 11
406.0
 21
9.0
 31
0.0
  0
POINT
  5
92
330
A
100
AcDbEntity
  8
LAY-1
  6
Continuous
 62
     5
100
AcDbPoint
 10
406.0
 20
9.000011
 30
0.0
  0
POINT
  5
93
330
A
100
AcDbEntity
  8
LAY-1
  6
Continuous
 62
     5
100
AcDbPoint
 10
406.0
 20
19.00001099999998
 30
0.0
  0
POINT
  5
94
330
A
100
AcDbEntity
  8
LAY-1
  6
Continuous
 62
     5
100
AcDbPoint
 10
406.0
 20
9.000011
 30
0.0
  0
POINT
  5
95
330
A
100
AcDbEntity
  8
LAY-1
  6
Continuous
 62
     5
100
AcDbPoint
 10
406.0
 20
29.00001099999998
 30
0.0
  0
POINT
  5
96
330
A
100
AcDbEntity
  8
LAY-1
  6
Continuous
 62
     5
100
AcDbPoint
 10
406.0
 20
9.000011
 30
0.0
  0
POINT
  5
97
330
A
100
AcDbEntity
  8
LAY-1
  6
Continuous
 62
     5
100
AcDbPoint
 10
406.0
 20
39.000011
 30
0.0
  0
POINT
  5
98
330
A
100
AcDbEntity
  8
LAY-1
  6
Continuous
 62
     5
100
AcDbPoint
 10
406.0
 20
9.000011
 30
0.0
  0
POINT
  5
99
330
A
100
AcDbEntity
  8
LAY-1
  6
Continuous
 62
     5
100
AcDbPoint
 10
246.0
 20
9.000018999999998
 30
0.0
  0
POINT
  5
A2
330
A
100
AcDbEntity
  8
LAY-1
  6
Continuous
 62
     5
100
AcDbPoint
 10
406.0
 20
9.000011
 30
0.0
  0
POINT
  5
A3
330
A
100
AcDbEntity
  8
LAY-1
  6
Continuous
 62
     5
100
AcDbPoint
 10
346.0
 20
9.000011
 30
0.0
  0
POINT
  5
B9
330
A
100
AcDbEntity
  8
LAY-1
  6
Continuous
 62
     5
100
AcDbPoint
 10
236.6304319999999
 20
8.999988
 30
0.0
  0
LWPOLYLINE
  5
BA
330
A
100
AcDbEntity
  8
LAY-1
  6
Continuous
 62
     3
100
AcDbPolyline
 90
        4
 70
   128
 43
0.0
 10
324.5
 20
104.7750875989474
 10
324.5
 20
105.7750875989474
 10
399.5
 20
105.7750875989474
 10
399.5
 20
104.7750875989474
  0
LWPOLYLINE
  5
C0
330
A
100
AcDbEntity
  8
LAY-1
  6
Continuous
 62
     3
100
AcDbPolyline
 90
        4
 70
   128
 43
0.0
 10
324.5
 20
105.7750875989474
 10
324.5
 20
106.7750875989474
 10
399.5
 20
106.7750875989474
 10
399.5
 20
105.7750875989474
  0
LWPOLYLINE
  5
C6
330
A
100
AcDbEntity
  8
LAY-1
  6
Continuous
 62
     3
100
AcDbPolyline
 90
        4
 70
   128
 43
0.0
 10
324.5
 20
106.7750875989474
 10
324.5
 20
127.2750875989475
 10
326.1
 20
127.2750875989475
 10
326.1
 20
106.7750875989474
  0
LWPOLYLINE
  5
CC
330
A
100
AcDbEntity
  8
LAY-1
  6
Continuous
 62
     3
100
AcDbPolyline
 90
        4
 70
   128
 43
0.0
 10
399.5
 20
106.7750875989474
 10
399.5
 20
127.2750875989475
 10
397.8999999999998
 20
127.2750875989475
 10
397.8999999999998
 20
106.7750875989474
  0
LWPOLYLINE
  5
D2
330
A
100
AcDbEntity
  8
LAY-1
  6
Continuous
 62
     3
100
AcDbPolyline
 90
        5
 70
   128
 43
0.0
 10
326.1
 20
127.2750875989475
 10
326.1
 20
128.7750875989474
 10
397.8999999999998
 20
128.7750875989474
 10
397.8999999999998
 20
118.7750875989475
 10
326.1
 20
118.7750875989475
  0
LWPOLYLINE
  5
D9
330
A
100
AcDbEntity
  8
LAY-1
  6
Continuous
 62
     3
100
AcDbPolyline
 90
        4
 70
   128
 43
0.0
 10
187.0
 20
138.7750875989475
 10
177.0
 20
138.7750875989475
 10
177.0
 20
128.7750875989474
 10
187.0
 20
128.7750875989474
  0
POINT
  5
DF
330
A
100
AcDbEntity
  8
LAY-1
  6
Continuous
 62
     3
100
AcDbPoint
 10
247.0
 20
128.7750875989474
 30
0.0
  0
LINE
  5
E0
330
A
100
AcDbEntity
  8
LAY-1
  6
Continuous
 62
     3
100
AcDbLine
 10
247.0
 20
128.7750875989474
 30
0.0
 11
247.0
 21
138.7750875989475
 31
0.0
  0
POINT
  5
E1
330
A
100
AcDbEntity
  8
LAY-1
  6
Continuous
 62
     3
100
AcDbPoint
 10
187.0
 20
133.7750875989474
 30
0.0
  0
POINT
  5
E2
330
A
100
AcDbEntity
  8
LAY-1
  6
Continuous
 62
     3
100
AcDbPoint
 10
187.0
 20
136.2750875989474
 30
0.0
  0
POINT
  5
E3
330
A
100
AcDbEntity
  8
LAY-1
  6
Continuous
 62
     3
100
AcDbPoint
 10
187.0
 20
131.2750875989475
 30
0.0
  0
POINT
  5
E4
330
A
100
AcDbEntity
  8
LAY-1
  6
Continuous
 62
     3
100
AcDbPoint
 10
217.0
 20
128.7750875989474
 30
0.0
  0
POINT
  5
E5
330
A
100
AcDbEntity
  8
LAY-1
  6
Continuous
 62
     3
100
AcDbPoint
 10
234.5
 20
128.7750875989474
 30
0.0
  0
POINT
  5
E6
330
A
100
AcDbEntity
  8
LAY-1
  6
Continuous
 62
     3
100
AcDbPoint
 10
199.5
 20
128.7750875989474
 30
0.0
  0
LWPOLYLINE
  5
E7
330
A
100
AcDbEntity
  8
LAY-1
  6
Continuous
 62
     3
100
AcDbPolyline
 90
        7
 70
   128
 43
0.0
 10
199.5
 20
128.7750875989474
 10
199.5
 20
139.2750875989474
 10
182.0
 20
139.2750875989474
 10
182.0
 20
148.7750875989474
 10
226.5
 20
148.7750875989474
 10
234.5
 20
140.7750875989474
 10
234.5
 20
128.7750875989474
  0
POINT
  5
F0
330
A
100
AcDbEntity
  8
LAY-1
  6
Continuous
 62
     3
100
AcDbPoint
 10
217.0
 20
148.7750875989474
 30
0.0
  0
POINT
  5
F1
330
A
100
AcDbEntity
  8
LAY-1
  6
Continuous
 62
     3
100
AcDbPoint
 10
219.4999999999999
 20
148.7750875989474
 30
0.0
  0
POINT
  5
F2
330
A
100
AcDbEntity
  8
LAY-1
  6
Continuous
 62
     3
100
AcDbPoint
 10
214.5
 20
148.7750875989474
 30
0.0
  0
POINT
  5
F3
330
A
100
AcDbEntity
  8
LAY-1
  6
Continuous
 62
     3
100
AcDbPoint
 10
224.0
 20
148.7750875989474
 30
0.0
  0
LWPOLYLINE
  5
F4
330
A
100
AcDbEntity
  8
LAY-1
  6
Continuous
 62
     3
100
AcDbPolyline
 90
        5
 70
   128
 43
0.0
 10
224.0
 20
148.7750875989474
 10
224.0
 20
177.0250875989475
 10
174.0
 20
177.0250875989475
 10
174.0
 20
148.7750875989474
 10
182.0
 20
148.7750875989474
  0
POINT
  5
FB
330
A
100
AcDbEntity
  8
LAY-1
  6
Continuous
 62
     3
100
AcDbPoint
 10
134.0
 20
168.7750875989475
 30
0.0
  0
LINE
  5
FC
330
A
100
AcDbEntity
  8
LAY-1
  6
Continuous
 62
     3
100
AcDbLine
 10
134.0
 20
168.7750875989475
 30
0.0
 11
134.0
 21
186.2750875989474
 31
0.0
  0
POINT
  5
FD
330
A
100
AcDbEntity
  8
LAY-1
  6
Continuous
 62
     3
100
AcDbPoint
 10
234.0
 20
197.5250875989472
 30
0.0
  0
POINT
  5
FE
330
A
100
AcDbEntity
  8
LAY-1
  6
Continuous
 62
     3
100
AcDbPoint
 10
234.0
 20
157.5250875989475
 30
0.0
  0
LINE
  5
FF
330
A
100
AcDbEntity
  8
LAY-1
  6
Continuous
 62
     3
100
AcDbLine
 10
234.0
 20
197.5250875989472
 30
0.0
 11
234.0
 21
157.5250875989475
 31
0.0
  0
LWPOLYLINE
  5
100
330
A
100
AcDbEntity
  8
LAY-1
  6
Continuous
 62
     3
100
AcDbPolyline
 90
        4
 70
   128
 43
0.0
 10
234.0
 20
157.5250875989475
 10
244.0
 20
157.5250875989475
 10
244.0
 20
197.5250875989472
 10
234.0
 20
197.5250875989472
  0
POINT
  5
106
330
A
100
AcDbEntity
  8
LAY-1
  6
Continuous
 62
     3
100
AcDbPoint
 10
174.0
 20
178.0250875989475
 30
0.0
  0
LWPOLYLINE
  5
107
330
A
100
AcDbEntity
  8
LAY-1
  6
Continuous
 62
     3
100
AcDbPolyline
 90
        5
 70
   128
 43
0.0
 10
174.0
 20
178.0250875989475
 10
224.0
 20
178.0250875989475
 10
224.0
 20
206.2750875989475
 10
174.0
 20
206.2750875989475
 10
174.0
 20
178.0250875989475
  0
LINE
  5
10E
330
A
100
AcDbEntity
  8
LAY-1
  6
Continuous
 62
     3
100
AcDbLine
 10
134.0
 20
186.2750875989474
 30
0.0
 11
174.0
 21
190.7750875989474
 31
0.0
  0
LINE
  5
10F
330
A
100
AcDbEntity
  8
LAY-1
  6
Continuous
 62
     3
100
AcDbLine
 10
224.0
 20
196.4000875989474
 30
0.0
 11
234.0
 21
197.5250875989472
 31
0.0
  0
LINE
  5
110
330
A
100
AcDbEntity
  8
LAY-1
  6
Continuous
 62
     3
100
AcDbLine
 10
134.0
 20
168.7750875989475
 30
0.0
 11
174.0
 21
164.2750875989474
 31
0.0
  0
LINE
  5
111
330
A
100
AcDbEntity
  8
LAY-1
  6
Continuous
 62
     3
100
AcDbLine
 10
224.0
 20
158.6500875989474
 30
0.0
 11
234.0
 21
157.5250875989475
 31
0.0
  0
LWPOLYLINE
  5
112
330
A
100
AcDbEntity
  8
LAY-1
  6
Continuous
 62
     3
100
AcDbPolyline
 90
        4
 70
   128
 43
0.0
 10
397.8999999999998
 20
128.7750875989474
 10
399.5
 20
128.7750875989474
 10
399.5
 20
138.7750875989475
 10
234.5
 20
138.7750875989475
  0
LWPOLYLINE
  5
118
330
A
100
AcDbEntity
  8
LAY-1
  6
Continuous
 62
     3
100
AcDbPolyline
 90
        4
 70
   128
 43
0.0
 10
199.5
 20
138.7750875989475
 10
187.0
 20
138.7750875989475
 10
187.0
 20
128.7750875989474
 10
326.1
 20
128.7750875989474
  0
LINE
  5
11E
330
A
100
AcDbEntity
  8
LAY-1
  6
Continuous
 62
     3
100
AcDbLine
 10
187.0
 20
136.2750875989474
 30
0.0
 11
199.5
 21
136.2750875989474
 31
0.0
  0
LINE
  5
11F
330
A
100
AcDbEntity
  8
LAY-1
  6
Continuous
 62
     3
100
AcDbLine
 10
234.5
 20
136.2750875989474
 30
0.0
 11
247.0
 21
136.2750875989474
 31
0.0
  0
LINE
  5
120
330
A
100
AcDbEntity
  8
LAY-1
  6
Continuous
 62
     3
100
AcDbLine
 10
187.0
 20
131.2750875989475
 30
0.0
 11
199.5
 21
131.2750875989475
 31
0.0
  0
LINE
  5
121
330
A
100
AcDbEntity
  8
LAY-1
  6
Continuous
 62
     3
100
AcDbLine
 10
234.5
 20
131.2750875989475
 30
0.0
 11
247.0
 21
131.2750875989475
 31
0.0
  0
LINE
  5
122
330
A
100
AcDbEntity
  8
LAY-1
  6
DOT
 62
     3
100
AcDbLine
 10
174.0
 20
190.7750875989474
 30
0.0
 11
224.0
 21
196.4000875989474
 31
0.0
  0
LINE
  5
123
330
A
100
AcDbEntity
  8
LAY-1
  6
DOT
 62
     3
100
AcDbLine
 10
174.0
 20
164.2750875989474
 30
0.0
 11
224.0
 21
158.6500875989474
 31
0.0
  0
LINE
  5
124
330
A
100
AcDbEntity
  8
LAY-1
  6
DOT
 62
     3
100
AcDbLine
 10
199.5
 20
131.2750875989475
 30
0.0
 11
234.5
 21
131.2750875989475
 31
0.0
  0
LINE
  5
125
330
A
100
AcDbEntity
  8
LAY-1
  6
DOT
 62
     3
100
AcDbLine
 10
234.5
 20
136.2750875989474
 30
0.0
 11
199.5
 21
136.2750875989474
 31
0.0
  0
LINE
  5
126
330
A
100
AcDbEntity
  8
LAY-1
  6
DOT
 62
     3
100
AcDbLine
 10
199.5
 20
138.7750875989475
 30
0.0
 11
234.5
 21
138.7750875989475
 31
0.0
  0
LWPOLYLINE
  5
127
330
A
100
AcDbEntity
  8
LAY-1
  6
Continuous
 62
     3
100
AcDbPolyline
 90
        5
 70
   128
 43
0.0
 10
244.0
 20
147.5250875989473
 10
326.0
 20
147.5250875989473
 10
326.0
 20
207.5250875989474
 10
244.0
 20
207.5250875989474
 10
244.0
 20
147.5250875989473
  0
POINT
  5
12E
330
A
100
AcDbEntity
  8
LAY-1
  6
Continuous
 62
     3
100
AcDbPoint
 10
244.0
 20
205.0250875989473
 30
0.0
  0
POINT
  5
12F
330
A
100
AcDbEntity
  8
LAY-1
  6
Continuous
 62
     3
100
AcDbPoint
 10
244.0
 20
150.0250875989475
 30
0.0
  0
LINE
  5
130
330
A
100
AcDbEntity
  8
LAY-1
  6
Continuous
 62
     3
100
AcDbLine
 10
244.0
 20
205.0250875989473
 30
0.0
 11
240.0
 21
205.0250875989473
 31
0.0
  0
LINE
  5
131
330
A
100
AcDbEntity
  8
LAY-1
  6
Continuous
 62
     3
100
AcDbLine
 10
244.0
 20
150.0250875989475
 30
0.0
 11
240.0
 21
150.0250875989475
 31
0.0
  0
POINT
  5
132
330
A
100
AcDbEntity
  8
LAY-1
  6
Continuous
 62
     3
100
AcDbPoint
 10
234.0
 20
197.5250875989472
 30
0.0
  0
LWPOLYLINE
  5
133
330
A
100
AcDbEntity
  8
LAY-1
  6
Continuous
 62
     3
100
AcDbPolyline
 90
        3
 70
   128
 43
0.0
 10
234.0
 20
197.5250875989472
 10
234.0
 20
200.5250875989474
 10
240.0
 20
205.0250875989473
  0
LWPOLYLINE
  5
138
330
A
100
AcDbEntity
  8
LAY-1
  6
Continuous
 62
     3
100
AcDbPolyline
 90
        3
 70
   128
 43
0.0
 10
234.0
 20
157.5250875989475
 10
234.0
 20
154.5250875989474
 10
240.0
 20
150.0250875989475
  0
LINE
  5
13D
330
A
100
AcDbEntity
  8
LAY-1
  6
Continuous
 62
     3
100
AcDbLine
 10
270.5
 20
104.7750875989474
 30
0.0
 11
406.0
 21
104.7750875989474
 31
0.0
  0
LWPOLYLINE
  5
13E
330
A
100
AcDbEntity
  8
LAY-1
  6
Continuous
 62
     3
100
AcDbPolyline
 90
        5
 70
   128
 43
0.0
 10
34.0
 20
168.7750875989475
 10
114.0
 20
168.7750875989475
 10
114.0
 20
186.2750875989474
 10
34.0
 20
186.2750875989474
 10
34.0
 20
168.7750875989475
  0
POINT
  5
145
330
A
100
AcDbEntity
  8
LAY-1
  6
Continuous
 62
     3
100
AcDbPoint
 10
74.0
 20
177.5250875989474
 30
0.0
  0
CIRCLE
  5
146
330
A
100
AcDbEntity
  8
LAY-1
  6
Continuous
 62
     3
100
AcDbCircle
 10
74.0
 20
177.5250875989474
 30
0.0
 40
30.0
  0
POINT
  5
147
330
A
100
AcDbEntity
  8
LAY-1
  6
Continuous
 62
     3
100
AcDbPoint
 10
74.0
 20
178.0250875989475
 30
0.0
  0
POINT
  5
148
330
A
100
AcDbEntity
  8
LAY-1
  6
Continuous
 62
     3
100
AcDbPoint
 10
74.0
 20
177.0250875989475
 30
0.0
  0
LWPOLYLINE
  5
149
330
A
100
AcDbEntity
  8
LAY-1
  6
Continuous
 62
     3
100
AcDbPolyline
 90
        5
 70
   128
 43
0.0
 10
39.0
 20
178.0250875989475
 10
109.0
 20
178.0250875989475
 10
109.0
 20
206.2750875989475
 10
39.0
 20
206.2750875989475
 10
39.0
 20
178.0250875989475
  0
LWPOLYLINE
  5
150
330
A
100
AcDbEntity
  8
LAY-1
  6
Continuous
 62
     3
100
AcDbPolyline
 90
        5
 70
   128
 43
0.0
 10
39.0
 20
148.7750875989474
 10
109.0
 20
148.7750875989474
 10
109.0
 20
177.0250875989475
 10
39.0
 20
177.0250875989475
 10
39.0
 20
148.7750875989474
  0
POINT
  5
157
330
A
100
AcDbEntity
  8
LAY-1
  6
Continuous
 62
     3
100
AcDbPoint
 10
108.0
 20
148.7750875989474
 30
0.0
  0
LWPOLYLINE
  5
158
330
A
100
AcDbEntity
  8
LAY-1
  6
Continuous
 62
     3
100
AcDbPolyline
 90
        8
 70
   128
 43
0.0
 10
108.0
 20
148.7750875989474
 10
108.0
 20
138.7750875989475
 10
98.0
 20
138.7750875989475
 10
98.0
 20
139.2750875989474
 10
50.0
 20
139.2750875989474
 10
50.0
 20
138.7750875989475
 10
40.0
 20
138.7750875989475
 10
40.0
 20
148.7750875989474
  0
LWPOLYLINE
  5
162
330
A
100
AcDbEntity
  8
LAY-1
  6
Continuous
 62
     3
100
AcDbPolyline
 90
        4
 70
   128
 43
0.0
 10
40.0
 20
138.7750875989475
 10
40.0
 20
128.7750875989474
 10
108.0
 20
128.7750875989474
 10
108.0
 20
138.7750875989475
  0
LINE
  5
168
330
A
100
AcDbEntity
  8
LAY-1
  6
Continuous
 62
     3
100
AcDbLine
 10
50.0
 20
138.7750875989475
 30
0.0
 11
98.0
 21
138.7750875989475
 31
0.0
  0
POINT
  5
169
330
A
100
AcDbEntity
  8
LAY-1
  6
Continuous
 62
     3
100
AcDbPoint
 10
45.0
 20
133.7750875989474
 30
0.0
  0
POINT
  5
16A
330
A
100
AcDbEntity
  8
LAY-1
  6
Continuous
 62
     3
100
AcDbPoint
 10
64.0
 20
133.7750875989474
 30
0.0
  0
POINT
  5
16B
330
A
100
AcDbEntity
  8
LAY-1
  6
Continuous
 62
     3
100
AcDbPoint
 10
84.0
 20
133.7750875989474
 30
0.0
  0
POINT
  5
16C
330
A
100
AcDbEntity
  8
LAY-1
  6
Continuous
 62
     3
100
AcDbPoint
 10
103.0
 20
133.7750875989474
 30
0.0
  0
CIRCLE
  5
16D
330
A
100
AcDbEntity
  8
LAY-1
  6
Continuous
 62
     3
100
AcDbCircle
 10
45.0
 20
133.7750875989474
 30
0.0
 40
3.0
  0
CIRCLE
  5
16E
330
A
100
AcDbEntity
  8
LAY-1
  6
Continuous
 62
     3
100
AcDbCircle
 10
103.0
 20
133.7750875989474
 30
0.0
 40
3.0
  0
CIRCLE
  5
16F
330
A
100
AcDbEntity
  8
LAY-1
  6
Continuous
 62
     3
100
AcDbCircle
 10
64.0
 20
133.7750875989474
 30
0.0
 40
4.0
  0
CIRCLE
  5
170
330
A
100
AcDbEntity
  8
LAY-1
  6
Continuous
 62
     3
100
AcDbCircle
 10
84.0
 20
133.7750875989474
 30
0.0
 40
4.0
  0
POINT
  5
171
330
A
100
AcDbEntity
  8
LAY-1
  6
Continuous
 62
     3
100
AcDbPoint
 10
224.0
 20
152.2750875989475
 30
0.0
  0
POINT
  5
172
330
A
100
AcDbEntity
  8
LAY-1
  6
Continuous
 62
     3
100
AcDbPoint
 10
174.0
 20
155.2750875989475
 30
0.0
  0
LWPOLYLINE
  5
173
330
A
100
AcDbEntity
  8
LAY-1
  6
DOT
 62
     1
100
AcDbPolyline
 90
        4
 70
   128
 43
0.0
 10
174.0
 20
155.2750875989475
 10
204.0
 20
155.2750875989475
 10
204.0
 20
152.2750875989475
 10
224.0
 20
152.2750875989475
  0
LINE
  5
179
330
A
100
AcDbEntity
  8
LAY-1
  6
Continuous
 62
     3
100
AcDbLine
 10
134.0
 20
168.7750875989475
 30
0.0
 11
125.7
 21
168.7750875989475
 31
0.0
  0
LINE
  5
17A
330
A
100
AcDbEntity
  8
LAY-1
  6
Continuous
 62
     3
100
AcDbLine
 10
134.0
 20
186.2750875989474
 30
0.0
 11
128.4999999999999
 21
186.2750875989474
 31
0.0
  0
LWPOLYLINE
  5
17B
330
A
100
AcDbEntity
  8
LAY-1
  6
Continuous
 62
     3
100
AcDbPolyline
 90
        3
 70
   128
 43
0.0
 10
134.0
 20
168.7750875989475
 10
134.0
 20
165.7750875989474
 10
124.7999999999999
 20
165.7750875989474
  0
LWPOLYLINE
  5
180
330
A
100
AcDbEntity
  8
LAY-1
  6
Continuous
 62
     3
100
AcDbPolyline
 90
       34
 70
   128
 43
0.0
 10
124.7999999999999
 20
165.7750875989474
 10
124.8125889999997
 20
165.8142895989473
 10
124.847999
 20
165.9262135989474
 10
124.902694
 20
166.1023305989474
 10
124.9731399999999
 20
166.3341165989475
 10
125.0558
 20
166.6130445989475
 10
125.147139
 20
166.9305885989474
 10
125.243623
 20
167.2782225989475
 10
125.3417149999999
 20
167.6474185989474
 10
125.43788
 20
168.0296525989474
 10
125.528583
 20
168.4163965989474
 10
125.6102889999999
 20
168.7991255989475
 10
125.798803
 20
169.9971695989475
 10
125.872643
 20
171.0776075989474
 10
125.8574659999997
 20
172.0632625989472
 10
125.778928
 20
172.9769565989474
 10
125.662688
 20
173.8415145989474
 10
125.534402
 20
174.6797595989475
 10
125.419727
 20
175.5145135989474
 10
125.3443209999999
 20
176.3686005989475
 10
125.333841
 20
177.2648425989475
 10
125.413945
 20
178.2260635989475
 10
125.6102889999999
 20
179.2750875989475
 10
125.834727
 20
180.0956165989472
 10
126.1166919999999
 20
180.9502955989474
 10
126.43956
 20
181.8154625989474
 10
126.786706
 20
182.6674575989475
 10
127.1415039999999
 20
183.4826185989474
 10
127.487329
 20
184.2372865989474
 10
127.807558
 20
184.9077995989475
 10
128.0855639999997
 20
185.4704965989474
 10
128.3047229999999
 20
185.9017175989475
 10
128.44841
 20
186.1778015989474
 10
128.4999999999999
 20
186.2750875989474
  0
LWPOLYLINE
  5
1A4
330
A
100
AcDbEntity
  8
LAY-1
  6
Continuous
 62
     3
100
AcDbPolyline
 90
       67
 70
   128
 43
0.0
 10
134.0
 20
165.7750875989474
 10
134.1540689999999
 20
165.7728235989474
 10
134.593986
 20
165.7659455989475
 10
135.2863189999997
 20
165.7543245989475
 10
136.197635
 20
165.7378305989474
 10
137.294501
 20
165.7163345989475
 10
138.543484
 20
165.6897085989474
 10
139.911151
 20
165.6578215989474
 10
141.364069
 20
165.6205455989474
 10
142.868805
 20
165.5777505989474
 10
144.391926
 20
165.5293075989475
 10
145.9
 20
165.4750875989473
 10
149.6164499999999
 20
165.3070735989475
 10
153.041028
 20
165.1029385989475
 10
156.209927
 20
164.8665295989474
 10
159.1593419999998
 20
164.6016945989473
 10
161.925467
 20
164.3122795989475
 10
164.544496
 20
164.0021335989475
 10
167.052623
 20
163.6751035989474
 10
169.486043
 20
163.3350365989473
 10
171.8809489999999
 20
162.9857795989473
 10
174.273537
 20
162.6311815989474
 10
176.6999999999999
 20
162.2750875989474
 10
180.632978
 20
161.7179045989473
 10
184.715363
 20
161.1515565989474
 10
188.9242449999999
 20
160.5610925989475
 10
193.2367129999999
 20
159.9315605989475
 10
197.629858
 20
159.2480115989475
 10
202.080771
 20
158.4954925989475
 10
206.566541
 20
157.6590545989474
 10
211.0642589999999
 20
156.7237465989475
 10
215.551014
 20
155.6746155989475
 10
220.0038979999999
 20
154.4967135989475
 10
224.4
 20
153.1750875989475
 10
227.2008
 20
152.2411085989475
 10
229.9711559999999
 20
151.2568815989474
 10
232.713891
 20
150.2383885989473
 10
235.4318259999998
 20
149.2016165989475
 10
238.127783
 20
148.1625495989475
 10
240.8045839999999
 20
147.1371715989475
 10
243.465049
 20
146.1414675989473
 10
246.112002
 20
145.1914225989475
 10
248.748264
 20
144.3030215989475
 10
251.376656
 20
143.4922475989474
 10
254.0
 20
142.7750875989475
 10
256.872991
 20
142.1106995989475
 10
259.7562379999999
 20
141.5681805989474
 10
262.662668
 20
141.1378675989474
 10
265.605209
 20
140.8100955989475
 10
268.596787
 20
140.5752015989475
 10
271.650332
 20
140.4235205989475
 10
274.778769
 20
140.3453895989474
 10
277.995027
 20
140.3311455989475
 10
281.3120339999999
 20
140.3711225989475
 10
284.7427149999997
 20
140.4556575989474
 10
288.3
 20
140.5750875989475
 10
298.6910489999999
 20
141.0289725989475
 10
309.774177
 20
141.6316215989475
 10
321.1950449999998
 20
142.3425805989475
 10
332.5993149999998
 20
143.1213975989475
 10
343.632648
 20
143.9276185989475
 10
353.9407049999998
 20
144.7207915989475
 10
363.169148
 20
145.4604645989475
 10
370.963638
 20
146.1061825989474
 10
376.969835
 20
146.6174945989475
 10
380.8334019999998
 20
146.9539475989475
 10
382.2
 20
147.0750875989475
  0
POINT
  5
1E9
330
A
100
AcDbEntity
  8
LAY-1
  6
Continuous
 62
     3
100
AcDbPoint
 10
74.0
 20
127.2750875989475
 30
0.0
  0
POINT
  5
1EA
330
A
100
AcDbEntity
  8
LAY-1
  6
Continuous
 62
     3
100
AcDbPoint
 10
101.5
 20
128.7750875989474
 30
0.0
  0
POINT
  5
1EB
330
A
100
AcDbEntity
  8
LAY-1
  6
Continuous
 62
     3
100
AcDbPoint
 10
94.0
 20
123.7750875989474
 30
0.0
  0
POINT
  5
1EC
330
A
100
AcDbEntity
  8
LAY-1
  6
Continuous
 62
     3
100
AcDbPoint
 10
54.0
 20
123.7750875989474
 30
0.0
  0
CIRCLE
  5
1ED
330
A
100
AcDbEntity
  8
LAY-1
  6
Continuous
 62
     1
100
AcDbCircle
 10
54.0
 20
123.7750875989474
 30
0.0
 40
4.0
  0
CIRCLE
  5
1EE
330
A
100
AcDbEntity
  8
LAY-1
  6
Continuous
 62
     1
100
AcDbCircle
 10
94.0
 20
123.7750875989474
 30
0.0
 40
4.0
  0
POINT
  5
1EF
330
A
100
AcDbEntity
  8
LAY-1
  6
Continuous
 62
     1
100
AcDbPoint
 10
124.0
 20
125.0250875989475
 30
0.0
  0
POINT
  5
1F0
330
A
100
AcDbEntity
  8
LAY-1
  6
Continuous
 62
     1
100
AcDbPoint
 10
24.0
 20
125.0250875989475
 30
0.0
  0
ARC
  5
1F1
330
A
100
AcDbEntity
  8
LAY-1
  6
Continuous
 62
     3
100
AcDbCircle
 10
74.0
 20
-431.2322724010524
 30
0.0
 40
558.4999999999999
100
AcDbArc
 50
92.31970899999998
 51
95.13631100000001
  0
ARC
  5
1F2
330
A
100
AcDbEntity
  8
LAY-1
  6
Continuous
 62
     3
100
AcDbCircle
 10
74.0
 20
-431.2322724010524
 30
0.0
 40
558.4999999999999
100
AcDbArc
 50
84.863689
 51
87.68029099999997
  0
ARC
  5
1F3
330
A
100
AcDbEntity
  8
LAY-1
  6
Continuous
 62
     3
100
AcDbCircle
 10
74.0
 20
-431.2322724010524
 30
0.0
 40
558.4999999999999
100
AcDbArc
 50
88.19212399999996
 51
91.807876
  0
LINE
  5
1F4
330
A
100
AcDbEntity
  8
LAY-1
  6
Continuous
 62
     3
100
AcDbLine
 10
46.5
 20
126.5902805989475
 30
0.0
 11
46.5
 21
128.7750875989474
 31
0.0
  0
LINE
  5
1F5
330
A
100
AcDbEntity
  8
LAY-1
  6
Continuous
 62
     3
100
AcDbLine
 10
101.5
 20
128.7750875989474
 30
0.0
 11
101.5
 21
126.5902805989475
 31
0.0
  0
LINE
  5
1F6
330
A
100
AcDbEntity
  8
LAY-1
  6
DOT
 62
     3
100
AcDbLine
 10
46.5
 20
126.5902805989475
 30
0.0
 11
46.5
 21
118.7750875989475
 31
0.0
  0
LINE
  5
1F7
330
A
100
AcDbEntity
  8
LAY-1
  6
DOT
 62
     3
100
AcDbLine
 10
101.5
 20
126.5902805989475
 30
0.0
 11
101.5
 21
118.7750875989475
 31
0.0
  0
LINE
  5
1F8
330
A
100
AcDbEntity
  8
LAY-1
  6
DOT
 62
     3
100
AcDbLine
 10
46.5
 20
118.7750875989475
 30
0.0
 11
101.5
 21
118.7750875989475
 31
0.0
  0
LWPOLYLINE
  5
1F9
330
A
100
AcDbEntity
  8
LAY-1
  6
Continuous
 62
     3
100
AcDbPolyline
 90
       56
 70
   128
 43
0.0
 10
24.0
 20
125.0250875989475
 10
24.023096
 20
124.7797905989475
 10
24.096367
 20
124.0882985989474
 10
24.225793
 20
123.0172125989474
 10
24.417349
 20
121.6331315989474
 10
24.67701299999999
 20
120.0026545989475
 10
25.01076199999999
 20
118.1923825989472
 10
25.424575
 20
116.2689155989474
 10
25.924428
 20
114.2988525989474
 10
26.516298
 20
112.3487935989474
 10
27.206163
 20
110.4853385989474
 10
28.0
 20
108.7750875989474
 10
29.67259799999999
 20
106.2436365989472
 10
31.649126
 20
104.3136495989472
 10
33.886464
 20
102.8927975989474
 10
36.341493
 20
101.8887485989474
 10
38.97109299999997
 20
101.2091715989474
 10
41.73214399999999
 20
100.7617355989474
 10
44.581528
 20
100.4541095989474
 10
47.476125
 20
100.1939625989475
 10
50.372816
 20
99.88896459894753
 10
53.228481
 20
99.4467825989475
 10
56.0
 20
98.77508759894752
 10
58.873554
 20
97.71187359894749
 10
61.61840999999999
 20
96.34511159894749
 10
64.255595
 20
94.74989659894749
 10
66.806134
 20
93.00132159894749
 10
69.291053
 20
91.17448059894753
 10
71.73137800000002
 20
89.34446659894749
 10
74.148135
 20
87.58637459894748
 10
76.56234999999998
 20
85.97529659894751
 10
78.995049
 20
84.5863265989475
 10
81.46725699999997
 20
83.49455959894749
 10
84.0
 20
82.77508759894748
 10
86.05543799999997
 20
82.51193159894748
 10
88.15088199999998
 20
82.52164759894748
 10
90.27536000000001
 20
82.79748759894749
 10
92.41790299999999
 20
83.33270659894749
 10
94.56754000000001
 20
84.12055559894751
 10
96.713301
 20
85.15428959894748
 10
98.84421500000001
 20
86.42716159894749
 10
100.949313
 20
87.93242359894748
 10
103.0176229999999
 20
89.66333059894749
 10
105.038176
 20
91.61313359894748
 10
107.0
 20
93.7750875989475
 10
109.6202139999999
 20
97.11579259894749
 10
112.084912
 20
100.7314505989474
 10
114.374282
 20
104.4970915989474
 10
116.468512
 20
108.2877445989474
 10
118.3477909999999
 20
111.9784385989474
 10
119.9923049999999
 20
115.4442025989474
 10
121.382243
 20
118.5600645989475
 10
122.497794
 20
121.2010555989475
 10
123.3191449999999
 20
123.2422035989475
 10
123.826484
 20
124.5585385989474
 10
124.0
 20
125.0250875989475
  0
TEXT
  5
233
330
A
100
AcDbEntity
  8
LAY-1
  6
Continuous
 62
     1
100
AcDbText
 10
314.7498657019663
 20
230.7366889602807
 30
0.0
 40
3.0
  1
PMT Hamamatsu (H6614-01 R5924)
 41
0.6930792350366238
  7
EXCADSTD
 72
     5
 11
373.2457531390573
 21
230.7366889602807
 31
0.0
100
AcDbText
  0
LEADER
  5
234
330
A
100
AcDbEntity
  8
LAY-1
  6
Continuous
 62
     1
100
AcDbLeader
  3
STANDARD
 76
     3
 10
294.0
 20
196.7750875989475
 30
0.0
 10
311.990381
 20
227.9353415989474
 30
0.0
 10
375.5487410407352
 20
227.9353415989474
 30
0.0
1001
ACAD
1000
DSTYLE
1002
{
1070
    41
1040
3.0
1070
     5
1000
_EX_NORM
1070
     6
1000
_EX_NORM
1070
     7
1000
_EX_NORM
1002
}
  0
TEXT
  5
235
330
A
100
AcDbEntity
  8
LAY-1
  6
Continuous
 62
     1
100
AcDbText
 10
271.1766959999999
 20
251.5271043130115
 30
0.0
 40
3.0
  1
light guide support
 41
0.6668472299080179
  7
EXCADSTD
 72
     5
 11
306.9197075230697
 21
251.5271043130115
 31
0.0
100
AcDbText
  0
LEADER
  5
236
330
A
100
AcDbEntity
  8
LAY-1
  6
Continuous
 62
     1
100
AcDbLeader
  3
STANDARD
 76
     3
 10
239.9
 20
201.1750875989473
 30
0.0
 10
267.353392
 20
248.7257575989473
 30
0.0
 10
309.6832920893401
 20
248.7257575989473
 30
0.0
1001
ACAD
1000
DSTYLE
1002
{
1070
    41
1040
3.0
1070
     5
1000
_EX_NORM
1070
     6
1000
_EX_NORM
1070
     7
1000
_EX_NORM
1002
}
  0
TEXT
  5
237
330
A
100
AcDbEntity
  8
LAY-1
  6
Continuous
 62
     1
100
AcDbText
 10
90.43886308022775
 20
226.8744950996524
 30
0.0
 40
3.0
  1
light guide
 50
0.9012318740229016
 41
1.032103583335493
  7
EXCADSTD
 72
     5
 11
122.223721
 21
227.3744950996523
 31
0.0
100
AcDbText
  0
LEADER
  5
238
330
A
100
AcDbEntity
  8
LAY-1
  6
Continuous
 62
     1
100
AcDbLeader
  3
STANDARD
 76
     3
 10
154.0
 20
180.7750875989474
 30
0.0
 10
128.447441
 20
225.0334175989475
 30
0.0
 10
84.91169280300843
 20
225.0334175989475
 30
0.0
1001
ACAD
1000
DSTYLE
1002
{
1070
    41
1040
3.0
1070
     5
1000
_EX_NORM
1070
     6
1000
_EX_NORM
1070
     7
1000
_EX_NORM
1002
}
  0
TEXT
  5
239
330
A
100
AcDbEntity
  8
LAY-1
  6
Continuous
 62
     1
100
AcDbText
 10
28.71879326759494
 20
217.5036600996524
 30
0.0
 40
3.0
  1
scintillator BC-404 17.5t*8*1000
 50
0.3347801603228335
 41
0.9241115711725484
  7
EXCADSTD
 72
     5
 11
114.2900639999999
 21
218.0036600996523
 31
0.0
100
AcDbText
  0
LEADER
  5
23A
330
A
100
AcDbEntity
  8
LAY-1
  6
Continuous
 62
     1
100
AcDbLeader
  3
STANDARD
 76
     3
 10
129.0
 20
176.7750875989474
 30
0.0
 10
118.580127
 20
215.6625825989475
 30
0.0
 10
23.19162299037566
 20
215.6625825989475
 30
0.0
1001
ACAD
1000
DSTYLE
1002
{
1070
    41
1040
3.0
1070
     5
1000
_EX_NORM
1070
     6
1000
_EX_NORM
1070
     7
1000
_EX_NORM
1002
}
  0
TEXT
  5
23B
330
A
100
AcDbEntity
  8
LAY-1
  6
Continuous
 62
     1
100
AcDbText
 10
152.734825
 20
93.62146889194978
 30
0.0
 40
3.0
  1
scintillator 2.5t
 41
0.6762295081967215
  7
EXCADSTD
 72
     5
 11
185.734825
 21
93.62146889194978
 31
0.0
100
AcDbText
  0
LEADER
  5
23C
330
A
100
AcDbEntity
  8
LAY-1
  6
Continuous
 62
     1
100
AcDbLeader
  3
STANDARD
 76
     3
 10
128.4999999999999
 20
167.4750875989474
 30
0.0
 10
146.631763760319
 20
92.20092959894747
 30
0.0
 10
197.7580908277843
 20
92.20092959894747
 30
0.0
1001
ACAD
1000
DSTYLE
1002
{
1070
    41
1040
3.0
1070
     5
1000
_EX_NORM
1070
     6
1000
_EX_NORM
1070
     7
1000
_EX_NORM
1002
}
  0
TEXT
  5
23D
330
A
100
AcDbEntity
  8
LAY-1
  6
Continuous
 62
     1
100
AcDbText
 10
150.7771417544029
 20
112.8465325989475
 30
0.0
 40
3.0
  1
shaft fix
 41
0.9722881147418148
  7
EXCADSTD
 72
     5
 11
174.889887
 21
112.8465325989475
 31
0.0
100
AcDbText
  0
LEADER
  5
23E
330
A
100
AcDbEntity
  8
LAY-1
  6
Continuous
 62
     1
100
AcDbLeader
  3
STANDARD
 76
     3
 10
182.0
 20
132.5750875989475
 30
0.0
 10
176.579775
 20
112.3465325989474
 30
0.0
 10
148.4741538527256
 20
112.3465325989474
 30
0.0
1001
ACAD
1000
DSTYLE
1002
{
1070
    41
1040
3.0
1070
     5
1000
_EX_NORM
1070
     6
1000
_EX_NORM
1070
     7
1000
_EX_NORM
1002
}
  0
TEXT
  5
23F
330
A
100
AcDbEntity
  8
LAY-1
  6
Continuous
 62
     1
100
AcDbText
 10
171.101009
 20
104.7726225989474
 30
0.0
 40
3.0
  1
shaft
 41
0.8571428571428572
  7
EXCADSTD
 72
     5
 11
183.101009
 21
104.7726225989474
 31
0.0
100
AcDbText
  0
LEADER
  5
240
330
A
100
AcDbEntity
  8
LAY-1
  6
Continuous
 62
     1
100
AcDbLeader
  3
STANDARD
 76
     3
 10
196.4
 20
133.3750875989474
 30
0.0
 10
188.6020179999999
 20
104.2726225989474
 30
0.0
 10
161.3708844995708
 20
104.2726225989474
 30
0.0
1001
ACAD
1000
DSTYLE
1002
{
1070
    41
1040
3.0
1070
     5
1000
_EX_NORM
1070
     6
1000
_EX_NORM
1070
     7
1000
_EX_NORM
1002
}
  0
TEXT
  5
241
330
A
100
AcDbEntity
  8
LAY-1
  6
Continuous
 62
     1
100
AcDbText
 10
237.5726419999999
 20
113.7665708862936
 30
0.0
 40
3.0
  1
slide base
 41
0.8633093525179857
  7
EXCADSTD
 72
     5
 11
261.5726419999999
 21
113.7665708862936
 31
0.0
100
AcDbText
  0
LEADER
  5
242
330
A
100
AcDbEntity
  8
LAY-1
  6
Continuous
 62
     1
100
AcDbLeader
  3
STANDARD
 76
     3
 10
215.2
 20
142.2750875989474
 30
0.0
 10
232.7452849999999
 20
111.8857625989474
 30
0.0
 10
266.3999999999999
 20
111.8857625989474
 30
0.0
1001
ACAD
1000
DSTYLE
1002
{
1070
    41
1040
3.0
1070
     5
1000
_EX_NORM
1070
     6
1000
_EX_NORM
1070
     7
1000
_EX_NORM
1002
}
  0
TEXT
  5
243
330
A
100
AcDbEntity
  8
LAY-1
  6
Continuous
 62
     1
100
AcDbText
 10
216.6425895611201
 20
96.06028996028065
 30
0.0
 40
3.0
  1
light guide holder (down)
 41
0.6835957764070925
  7
EXCADSTD
 72
     5
 11
264.0841364437723
 21
96.06028996028065
 31
0.0
100
AcDbText
  0
LEADER
  5
244
330
A
100
AcDbEntity
  8
LAY-1
  6
Continuous
 62
     1
100
AcDbLeader
  3
STANDARD
 76
     3
 10
196.0
 20
167.7750875989475
 30
0.0
 10
215.966541
 20
93.2589425989475
 30
0.0
 10
262.1
 20
93.2589425989475
 30
0.0
1001
ACAD
1000
DSTYLE
1002
{
1070
    41
1040
3.0
1070
     5
1000
_EX_NORM
1070
     6
1000
_EX_NORM
1070
     7
1000
_EX_NORM
1002
}
  0
TEXT
  5
245
330
A
100
AcDbEntity
  8
LAY-1
  6
Continuous
 62
     1
100
AcDbText
 10
120.37770351268
 20
245.7579897469215
 30
0.0
 40
3.0
  1
light guide holder (up)
 50
0.5542964637019347
 41
0.8152072725672615
  7
EXCADSTD
 72
     5
 11
172.059426
 21
246.2579897469217
 31
0.0
100
AcDbText
  0
LEADER
  5
246
330
A
100
AcDbEntity
  8
LAY-1
  6
Continuous
 62
     1
100
AcDbLeader
  3
STANDARD
 76
     3
 10
198.5
 20
200.4750875989472
 30
0.0
 10
173.4188509999999
 20
243.9169115989475
 30
0.0
 10
115.7717277093247
 20
243.9169115989475
 30
0.0
1001
ACAD
1000
DSTYLE
1002
{
1070
    41
1040
3.0
1070
     5
1000
_EX_NORM
1070
     6
1000
_EX_NORM
1070
     7
1000
_EX_NORM
1002
}
  0
TEXT
  5
247
330
A
100
AcDbEntity
  8
LAY-1
  6
Continuous
 62
     1
100
AcDbText
 10
244.406089
 20
82.62676131301153
 30
0.0
 40
3.0
  1
base
 41
1.090909090909085
  7
EXCADSTD
 72
     5
 11
256.4060889999999
 21
82.62676131301153
 31
0.0
100
AcDbText
  0
LEADER
  5
248
330
A
100
AcDbEntity
  8
LAY-1
  6
Continuous
 62
     1
100
AcDbLeader
  3
STANDARD
 76
     3
 10
278.0
 20
132.7750875989474
 30
0.0
 10
263.8121779999999
 20
79.82541459894751
 30
0.0
 10
225.8545400231521
 20
79.82541459894751
 30
0.0
1001
ACAD
1000
DSTYLE
1002
{
1070
    41
1040
3.0
1070
     5
1000
_EX_NORM
1070
     6
1000
_EX_NORM
1070
     7
1000
_EX_NORM
1002
}
  0
TEXT
  5
249
330
A
100
AcDbEntity
  8
LAY-1
  6
Continuous
 62
     1
100
AcDbText
 10
333.1737666260309
 20
80.22252859894749
 30
0.0
 40
3.0
  1
base adapter
 41
0.9266459383309904
  7
EXCADSTD
 72
     5
 11
364.4943993416183
 21
80.22252859894749
 31
0.0
100
AcDbText
  0
LEADER
  5
24A
330
A
100
AcDbEntity
  8
LAY-1
  6
Continuous
 62
     1
100
AcDbLeader
  3
STANDARD
 76
     3
 10
377.0
 20
123.7750875989474
 30
0.0
 10
365.1961519999998
 20
79.72252859894749
 30
0.0
 10
333.0
 20
79.72252859894749
 30
0.0
1001
ACAD
1000
DSTYLE
1002
{
1070
    41
1040
3.0
1070
     5
1000
_EX_NORM
1070
     6
1000
_EX_NORM
1070
     7
1000
_EX_NORM
1002
}
  0
TEXT
  5
24B
330
A
100
AcDbEntity
  8
LAY-1
  6
Continuous
 62
     1
100
AcDbText
 10
281.5868428939725
 20
96.6775638862936
 30
0.0
 40
3.0
  1
base fix
 41
1.471605280092999
  7
EXCADSTD
 72
     5
 11
313.6678379999999
 21
96.6775638862936
 31
0.0
100
AcDbText
  0
LEADER
  5
24C
330
A
100
AcDbEntity
  8
LAY-1
  6
Continuous
 62
     1
100
AcDbLeader
  3
STANDARD
 76
     3
 10
325.3
 20
113.9558958862936
 30
0.0
 10
315.035675
 20
96.17756388629359
 30
0.0
 10
270.3
 20
96.17756388629359
 30
0.0
1001
ACAD
1000
DSTYLE
1002
{
1070
    41
1040
3.0
1070
     5
1000
_EX_NORM
1070
     6
1000
_EX_NORM
1070
     7
1000
_EX_NORM
1002
}
  0
TEXT
  5
24D
330
A
100
AcDbEntity
  8
LAY-1
  6
Continuous
 62
     1
100
AcDbText
 10
298.862277
 20
86.6526215989475
 30
0.0
 40
3.0
  1
belt
 41
1.363636363636363
  7
EXCADSTD
 72
     5
 11
313.862277
 21
86.6526215989475
 31
0.0
100
AcDbText
  0
LEADER
  5
24E
330
A
100
AcDbEntity
  8
LAY-1
  6
Continuous
 62
     1
100
AcDbLeader
  3
STANDARD
 76
     3
 10
332.2
 20
106.3750875989474
 30
0.0
 10
320.524554
 20
86.15262159894749
 30
0.0
 10
286.1928175526498
 20
86.15262159894749
 30
0.0
1001
ACAD
1000
DSTYLE
1002
{
1070
    41
1040
3.0
1070
     5
1000
_EX_NORM
1070
     6
1000
_EX_NORM
1070
     7
1000
_EX_NORM
1002
}
  0
TEXT
  5
24F
330
A
100
AcDbEntity
  8
LAY-1
  6
Continuous
 62
     1
100
AcDbText
 10
288.0352076450559
 20
75.84066659894749
 30
0.0
 40
3.0
  1
silicone gum
 41
0.8770592116847307
  7
EXCADSTD
 72
     5
 11
317.6798089999998
 21
75.84066659894749
 31
0.0
100
AcDbText
  0
LEADER
  5
250
330
A
100
AcDbEntity
  8
LAY-1
  6
Continuous
 62
     1
100
AcDbLeader
  3
STANDARD
 76
     3
 10
338.3
 20
105.3750875989474
 30
0.0
 10
320.9596189999998
 20
75.34066659894749
 30
0.0
 10
285.2716230787855
 20
75.34066659894749
 30
0.0
1001
ACAD
1000
DSTYLE
1002
{
1070
    41
1040
3.0
1070
     5
1000
_EX_NORM
1070
     6
1000
_EX_NORM
1070
     7
1000
_EX_NORM
1002
}
  0
TEXT
  5
251
330
A
100
AcDbEntity
  8
LAY-1
  6
Continuous
 62
     1
100
AcDbText
 10
369.6565509999998
 20
171.2621900996525
 30
0.0
 40
3.0
  1
WLS fiber
 41
0.9677419354838709
  7
EXCADSTD
 72
     5
 11
393.6565509999998
 21
171.2621900996525
 31
0.0
100
AcDbText
  0
LEADER
  5
252
330
A
100
AcDbEntity
  8
LAY-1
  6
Continuous
 62
     1
100
AcDbLeader
  3
STANDARD
 76
     3
 10
353.208513
 20
144.6644515989475
 30
0.0
 10
367.213103
 20
168.9211125989475
 30
0.0
 10
396.1
 20
168.9211125989475
 30
0.0
1001
ACAD
1000
DSTYLE
1002
{
1070
    41
1040
3.0
1070
     5
1000
_EX_NORM
1070
     6
1000
_EX_NORM
1070
     7
1000
_EX_NORM
1002
}
  0
TEXT
  5
253
330
A
100
AcDbEntity
  8
LAY-1
  6
Continuous
 62
     1
100
AcDbText
 10
378.3999999999998
 20
164.7750875989475
 30
0.0
 40
3.0
  1
φ1
 41
1.078352941176501
  7
EXCADSTD
 72
     5
 11
383.8996
 21
164.7750875989475
 31
0.0
100
AcDbText
  0
TEXT
  5
254
330
A
100
AcDbEntity
  8
LAY-1
  6
Continuous
 62
     1
100
AcDbText
 10
304.8
 20
71.07508759894749
 30
0.0
 40
3.0
  1
1t
 41
1.099919999999997
  7
EXCADSTD
 72
     5
 11
310.2996
 21
71.07508759894749
 31
0.0
100
AcDbText
  0
TEXT
  5
255
330
A
100
AcDbEntity
  8
LAY-1
  6
Continuous
 62
     1
100
AcDbText
 10
270.5325011948559
 20
92.35589588629359
 30
0.0
 40
3.0
  1
105-219-002
 41
0.8427343376607529
  7
EXCADSTD
 72
     5
 11
297.5
 21
92.35589588629359
 31
0.0
100
AcDbText
  0
TEXT
  5
256
330
A
100
AcDbEntity
  8
LAY-1
  6
Continuous
 62
     1
100
AcDbText
 10
229.078722398694
 20
75.77508759894749
 30
0.0
 40
3.0
  1
105-219-004
 41
1.066289925040812
  7
EXCADSTD
 72
     5
 11
263.2
 21
75.77508759894749
 31
0.0
100
AcDbText
  0
TEXT
  5
257
330
A
100
AcDbEntity
  8
LAY-1
  6
Continuous
 62
     1
100
AcDbText
 10
288.4958054543271
 20
82.1750875989475
 30
0.0
 40
3.0
  1
105-219-001
 41
0.8858474458943708
  7
EXCADSTD
 72
     5
 11
316.3999999999997
 21
82.1750875989475
 31
0.0
100
AcDbText
  0
TEXT
  5
258
330
A
100
AcDbEntity
  8
LAY-1
  6
Continuous
 62
     1
100
AcDbText
 10
222.6303576476102
 20
89.17508759894749
 30
0.0
 40
3.0
  1
105-219-013
 41
0.9355887277429467
  7
EXCADSTD
 72
     5
 11
252.5691969353846
 21
89.17508759894749
 31
0.0
100
AcDbText
  0
TEXT
  5
259
330
A
100
AcDbEntity
  8
LAY-1
  6
Continuous
 62
     1
100
AcDbText
 10
138.9
 20
239.9750875989473
 30
0.0
 40
3.0
  1
105-219-014
 41
0.75
  7
EXCADSTD
 72
     5
 11
162.9
 21
239.9750875989473
 31
0.0
100
AcDbText
  0
TEXT
  5
25A
330
A
100
AcDbEntity
  8
LAY-1
  6
Continuous
 62
     1
100
AcDbText
 10
235.5270882944555
 20
108.1750875989474
 30
0.0
 40
3.0
  1
105-219-008
 41
0.9355887635141307
  7
EXCADSTD
 72
     5
 11
265.4659287269077
 21
108.1750875989474
 31
0.0
100
AcDbText
  0
TEXT
  5
25B
330
A
100
AcDbEntity
  8
LAY-1
  6
Continuous
 62
     1
100
AcDbText
 10
160.9102866902994
 20
100.3750875989474
 30
0.0
 40
3.0
  1
105-219-006
 41
0.9068014362058784
  7
EXCADSTD
 72
     5
 11
189.9279326488876
 21
100.3750875989474
 31
0.0
100
AcDbText
  0
TEXT
  5
25C
330
A
100
AcDbEntity
  8
LAY-1
  6
Continuous
 62
     1
100
AcDbText
 10
149.3953483265898
 20
108.5750875989474
 30
0.0
 40
3.0
  1
105-219-007
 41
0.7970203647940659
  7
EXCADSTD
 72
     5
 11
174.9
 21
108.5750875989474
 31
0.0
100
AcDbText
  0
TEXT
  5
25D
330
A
100
AcDbEntity
  8
LAY-1
  6
Continuous
 62
     1
100
AcDbText
 10
333.6343644353021
 20
75.67508759894749
 30
0.0
 40
3.0
  1
105-219-003
 41
0.9499824092826633
  7
EXCADSTD
 72
     5
 11
364.0338015323473
 21
75.67508759894749
 31
0.0
100
AcDbText
  0
TEXT
  5
25E
330
A
100
AcDbEntity
  8
LAY-1
  6
Continuous
 62
     1
100
AcDbText
 10
277.0
 20
244.7750875989473
 30
0.0
 40
3.0
  1
105-219-015
 41
0.5625
  7
EXCADSTD
 72
     5
 11
295.0
 21
244.7750875989473
 31
0.0
100
AcDbText
  0
LINE
  5
25F
330
A
100
AcDbEntity
  8
LAY-1
  6
DOT
 62
     3
100
AcDbLine
 10
219.4999999999999
 20
148.7750875989474
 30
0.0
 11
219.4999999999999
 21
206.2750875989475
 31
0.0
  0
LINE
  5
260
330
A
100
AcDbEntity
  8
LAY-1
  6
DOT
 62
     3
100
AcDbLine
 10
214.5
 20
206.2750875989475
 30
0.0
 11
214.5
 21
148.7750875989474
 31
0.0
  0
LWPOLYLINE
  5
261
330
A
100
AcDbEntity
  8
LAY-1
  6
Continuous
 62
     3
100
AcDbPolyline
 90
        4
 70
   128
 43
0.0
 10
219.4999999999999
 20
206.2750875989475
 10
219.4999999999999
 20
221.2750875989474
 10
214.5
 20
221.2750875989474
 10
214.5
 20
206.2750875989475
  0
TEXT
  5
26C
330
A
100
AcDbEntity
  8
LAY-1
  6
Continuous
 62
     1
100
AcDbText
 10
134.1956297780673
 20
143.0764349602805
 30
0.0
 40
3.0
  1
spacer(when R is large)
 41
0.6393151920760188
  7
EXCADSTD
 72
     5
 11
174.7282129556869
 21
143.0764349602805
 31
0.0
100
AcDbText
  0
LEADER
  5
26D
330
A
100
AcDbEntity
  8
LAY-1
  6
Continuous
 62
     1
100
AcDbLeader
  3
STANDARD
 76
     3
 10
182.0
 20
148.7750875989474
 30
0.0
 10
173.5
 20
140.2750875989474
 30
0.0
 10
135.595706
 20
140.2750875989474
 30
0.0
1001
ACAD
1000
DSTYLE
1002
{
1070
    41
1040
3.0
1070
     5
1000
_EX_NORM
1070
     6
1000
_EX_NORM
1070
     7
1000
_EX_NORM
1002
}
  0
TEXT
  5
26E
330
A
100
AcDbEntity
  8
LAY-1
  6
Continuous
 62
     1
100
AcDbText
 10
139.2622022460154
 20
135.9750875989474
 30
0.0
 40
3.0
  1
105-219-010
 41
0.8492267458181688
  7
EXCADSTD
 72
     5
 11
166.4374581121968
 21
135.9750875989474
 31
0.0
100
AcDbText
  0
MTEXT
  5
29C
330
A
100
AcDbEntity
  8
LAY-1
  6
Continuous
100
AcDbMText
 10
312.0488560994465
 20
37.52383782989971
 30
0.0
 40
3.333333333333333
 41
33.33333333333335
 71
     1
 72
     5
  1
TITLE
 73
     1
 44
1.0
  0
MTEXT
  5
29D
330
A
100
AcDbEntity
  8
LAY-1
  6
Continuous
100
AcDbMText
 10
307.5476989746093
 20
16.8007639897584
 30
0.0
 40
3.0
 41
31.89735
 71
     1
 72
     5
  1
DRAWING NO.
 73
     1
 44
1.0
  0
MTEXT
  5
29E
330
A
100
AcDbEntity
  8
LAY-1
  6
Continuous
100
AcDbMText
 10
307.618662516276
 20
29.7867253475109
 30
0.0
 40
3.0
 41
33.33333333333335
 71
     1
 72
     5
  1
PHENIX\PDRAWUNG NO.
 73
     1
 44
1.0
  0
LINE
  5
29F
330
A
100
AcDbEntity
  8
LAY-1
  6
Continuous
370
   100
100
AcDbLine
 10
405.9999988143056
 20
40.93828637714779
 30
0.0
 11
239.3333321476386
 21
40.93827978995692
 31
0.0
210
0.0
220
0.0
230
-1.0
  0
LINE
  5
2A0
330
A
100
AcDbEntity
  8
LAY-1
  6
Continuous
370
   100
100
AcDbLine
 10
405.9999992095367
 20
30.93828637714779
 30
0.0
 11
239.3333325428704
 21
30.93827978995694
 31
0.0
210
0.0
220
0.0
230
-1.0
  0
LINE
  5
2A1
330
A
100
AcDbEntity
  8
LAY-1
  6
Continuous
370
   100
100
AcDbLine
 10
405.9999996047682
 20
20.93828637714779
 30
0.0
 11
239.3333329381017
 21
20.93827978995693
 31
0.0
210
0.0
220
0.0
230
-1.0
  0
MTEXT
  5
2A2
330
A
100
AcDbEntity
  8
LAY-1
  6
Continuous
100
AcDbMText
 10
256.9995218912759
 20
33.65146317608348
 30
0.0
 40
1.666666666666666
 41
13.28988333333334
 71
     1
 72
     5
  1
{\fArial|b0|i0|c0|p34;MILLIMETERS}
 73
     1
 44
1.0
  0
MTEXT
  5
2A3
330
A
100
AcDbEntity
  8
LAY-1
  6
Continuous
100
AcDbMText
 10
241.6541849772134
 20
19.46724953777782
 30
0.0
 40
2.5
 41
64.49488333333336
 71
     1
 72
     5
  1
{\fArial|b0|i0|c0|p34;JUL 31 2001\P\fArial|b1|i0|c0|p34;\H1.2x;CI \fMS UI Gothic|b1|i0|c0|p17; \fArial|b1|i0|c0|p34;INDUSTRIES, LTD. (JAPAN)}
 73
     1
 44
1.0
  0
MTEXT
  5
2A4
330
A
100
AcDbEntity
  8
LAY-1
  6
Continuous
100
AcDbMText
 10
246.0919062296545
 20
30.40583020972402
 30
0.0
 40
3.0
 41
55.91528214553289
 71
     1
 72
     5
  1
{\fArial|b1|i0|c0|p34;PHENIX TOC IN TSUKUBA\P\fArial|b0|i0|c0|p34;\H0.6667x;Dept. of Physics , Tsukuba Univ.  Japan}
 73
     1
 44
1.0
  0
LINE
  5
2A5
330
A
100
AcDbEntity
  8
LAY-1
  6
Continuous
370
   100
100
AcDbLine
 10
305.9999988143056
 20
40.93828242483326
 30
0.0
 11
305.9999988143056
 21
10.93827537714781
 31
0.0
210
0.0
220
0.0
230
-1.0
  0
MTEXT
  5
2A6
330
A
100
AcDbEntity
  8
LAY-1
  6
Continuous
100
AcDbMText
 10
293.9405212402343
 20
37.32955863602153
 30
0.0
 40
3.333333333333333
 41
13.2899
 71
     1
 72
     5
  1
{\fArial|b1|i0|c0|p34;1:1}
 73
     1
 44
1.0
  0
MTEXT
  5
2A7
330
A
100
AcDbEntity
  8
LAY-1
  6
Continuous
100
AcDbMText
 10
273.9664103190103
 20
37.7563298396984
 30
0.0
 40
3.333333333333333
 41
16.66666666222933
 71
     1
 72
     5
  1
{\fMS UI Gothic|b0|i0|c0|p17;SCALE}
 73
     1
 44
1.0
  0
LINE
  5
2A8
330
A
100
AcDbEntity
  8
LAY-1
  6
Continuous
370
   100
100
AcDbLine
 10
272.6666654809722
 20
40.93828110739504
 30
0.0
 11
272.6666658762037
 21
30.93828110739511
 31
0.0
210
0.0
220
0.0
230
-1.0
  0
LINE
  5
2A9
330
A
100
AcDbEntity
  8
LAY-1
  6
Continuous
370
   100
100
AcDbLine
 10
289.3333321476388
 20
40.93828176611411
 30
0.0
 11
289.3333325428703
 21
30.9382817661142
 31
0.0
210
0.0
220
0.0
230
-1.0
  0
MTEXT
  5
2AA
330
A
100
AcDbEntity
  8
LAY-1
  6
Continuous
100
AcDbMText
 10
361.7699762980143
 20
17.46585343805146
 30
0.0
 40
3.333333333333333
 41
17.9787
 71
     1
 72
     5
  1
047
 73
     1
 44
1.0
  0
MTEXT
  5
2AB
330
A
100
AcDbEntity
  8
LAY-1
  6
Continuous
100
AcDbMText
 10
345.1124215167656
 20
38.92764356349484
 30
0.0
 40
5.0
 41
56.9572
 71
     1
 72
     5
  1
{\fArial|b1|i0|c0|p34;T0C assemble 1}
 73
     1
 44
1.0
  0
MTEXT
  5
2AC
330
A
100
AcDbEntity
  8
LAY-1
  6
Continuous
100
AcDbMText
 10
351.4463577270507
 20
28.87597523656678
 30
0.0
 40
5.0
 41
46.5857
 71
     1
 72
     5
  1
{\fArial|b1|i0|c0|p34;105-219-901}
 73
     1
 44
1.0
  0
LINE
  5
2AD
330
A
100
AcDbEntity
  8
LAY-1
  6
Continuous
100
AcDbLine
 10
339.333332147639
 20
40.93828242483326
 30
0.0
 11
339.333332147639
 21
10.93827537714781
 31
0.0
210
0.0
220
0.0
230
-1.0
  0
LINE
  5
2AE
330
A
100
AcDbEntity
  8
LAY-1
  6
Continuous
370
   100
100
AcDbLine
 10
239.3333321476386
 20
40.93827978995692
 30
0.0
 11
239.3333333333332
 21
10.93827978995693
 31
0.0
210
0.0
220
0.0
230
-1.0
  0
MTEXT
  5
2AF
330
A
100
AcDbEntity
  8
LAY-1
  6
Continuous
100
AcDbMText
 10
241.193758646647
 20
37.46735678640196
 30
0.0
 40
3.333333333333333
 41
13.28987733741945
 71
     1
 72
     5
  1
UNIT
 73
     1
 44
1.0
  0
MTEXT
  5
2B0
330
A
100
AcDbEntity
  8
LAY-1
  6
Continuous
100
AcDbMText
 10
260.032251993815
 20
39.49613450494597
 30
0.0
 40
3.333333333333333
 41
13.28988333333334
 71
     1
 72
     5
  1
{\fArial|b1|i1|c0|p34;mm}
 73
     1
 44
1.0
  0
LINE
  5
2B1
330
A
100
AcDbEntity
  8
LAY-1
  6
Continuous
370
   100
100
AcDbLine
 10
255.9999988143056
 20
40.93828044867596
 30
0.0
 11
255.999999209537
 21
30.93828044867603
 31
0.0
210
0.0
220
0.0
230
-1.0
  0
TEXT
  5
2CB
330
A
100
AcDbEntity
  8
LAY-1
  6
Continuous
 62
     1
100
AcDbText
 10
168.5575273057112
 20
256.7720448888869
 30
0.0
 40
3.0
  1
105-219-012
 41
0.7499999999999992
  7
EXCADSTD
 72
     5
 11
192.5575273057111
 21
256.7720448888869
 31
0.0
100
AcDbText
  0
LEADER
  5
2CC
330
A
100
AcDbEntity
  8
LAY-1
  6
Continuous
 62
     1
100
AcDbLeader
  3
STANDARD
 76
     3
 10
217.1031867453416
 20
217.272044888887
 30
0.0
 10
203.7458583273826
 20
260.7138688888872
 30
0.0
 10
166.4374573465521
 20
260.7138688888872
 30
0.0
1001
ACAD
1000
DSTYLE
1002
{
1070
    41
1040
3.0
1070
     5
1000
_EX_NORM
1070
     6
1000
_EX_NORM
1070
     7
1000
_EX_NORM
1002
}
  0
TEXT
  5
2CD
330
A
100
AcDbEntity
  8
LAY-1
  6
Continuous
 62
     1
100
AcDbText
 10
170.1222379186955
 20
262.5549470368612
 30
0.0
 40
3.0
  1
fix bar
 50
1.195926843802126
 41
1.274270734656
  7
EXCADSTD
 72
     5
 11
194.0733093255064
 21
263.0549470368612
 31
0.0
100
AcDbText
  0
TEXT
  5
2E1
330
A
100
AcDbEntity
  8
LAY-1
  6
Continuous
 62
     1
100
AcDbText
 10
154.0013240716289
 20
87.93633576534103
 30
0.0
 40
3.0
  1
105-219-110
 41
0.9068014362058779
  7
EXCADSTD
 72
     5
 11
183.018970030217
 21
87.93633576534103
 31
0.0
100
AcDbText
  0
ENDSEC
  0
SECTION
  2
OBJECTS
  0
DICTIONARY
  5
19
330
0
100
AcDbDictionary
281
     1
  3
ACAD_GROUP
350
1A
  3
ACAD_LAYOUT
350
277
  3
ACAD_MLINESTYLE
350
1B
  3
ACAD_PLOTSETTINGS
350
278
  3
ACAD_PLOTSTYLENAME
350
275
  3
ASE_INDEX_DICTIONARY
350
2B4
  0
DICTIONARY
  5
1A
102
{ACAD_REACTORS
330
19
102
}
330
19
100
AcDbDictionary
281
     1
  0
DICTIONARY
  5
277
102
{ACAD_REACTORS
330
19
102
}
330
19
100
AcDbDictionary
281
     1
  3
Model
350
279
  3
ﾚｲｱｳﾄ1
350
27A
  0
DICTIONARY
  5
1B
102
{ACAD_REACTORS
330
19
102
}
330
19
100
AcDbDictionary
281
     1
  3
STANDARD
350
1C
  0
DICTIONARY
  5
278
102
{ACAD_REACTORS
330
19
102
}
330
19
100
AcDbDictionary
281
     1
  0
ACDBDICTIONARYWDFLT
  5
275
102
{ACAD_REACTORS
330
19
102
}
330
19
100
AcDbDictionary
281
     1
  3
Normal
350
276
100
AcDbDictionaryWithDefault
340
276
  0
DICTIONARY
  5
2B4
102
{ACAD_REACTORS
330
19
102
}
330
19
100
AcDbDictionary
281
     1
  3
ASEBlockHierarchyIndexRecord
350
2B6
1001
DCO15
1040
1413144202.5
  0
LAYOUT
  5
279
102
{ACAD_REACTORS
330
277
102
}
330
277
100
AcDbPlotSettings
  1

  2
Tektronix Phaser 850DP
  4

  6

 40
0.0
 41
0.0
 42
0.0
 43
0.0
 44
0.0
 45
0.0
 46
0.0
 47
0.0
 48
0.0
 49
0.0
140
0.0
141
0.0
142
1.0
143
1.0
 70
  1712
 72
     0
 73
     0
 74
     0
  7

 75
     0
147
1.0
148
0.0
149
0.0
100
AcDbLayout
  1
Model
 70
     1
 71
     0
 10
0.0
 20
0.0
 11
12.0
 21
9.0
 12
0.0
 22
0.0
 32
0.0
 14
0.0
 24
0.0
 34
0.0
 15
0.0
 25
0.0
 35
0.0
146
0.0
 13
0.0
 23
0.0
 33
0.0
 16
1.0
 26
0.0
 36
0.0
 17
0.0
 27
1.0
 37
0.0
 76
     0
330
A
  0
LAYOUT
  5
27A
102
{ACAD_REACTORS
330
277
102
}
330
277
100
AcDbPlotSettings
  1

  2
Tektronix Phaser 850DP
  4

  6

 40
0.0
 41
0.0
 42
0.0
 43
0.0
 44
0.0
 45
0.0
 46
0.0
 47
0.0
 48
0.0
 49
0.0
140
0.0
141
0.0
142
1.0
143
1.0
 70
   688
 72
     0
 73
     0
 74
     5
  7

 75
    16
147
1.0
148
0.0
149
0.0
100
AcDbLayout
  1
ﾚｲｱｳﾄ1
 70
     0
 71
     1
 10
0.0
 20
0.0
 11
12.0
 21
9.0
 12
0.0
 22
0.0
 32
0.0
 14
1.000000000000000E+20
 24
1.000000000000000E+20
 34
1.000000000000000E+20
 15
-1.000000000000000E+20
 25
-1.000000000000000E+20
 35
-1.000000000000000E+20
146
0.0
 13
0.0
 23
0.0
 33
0.0
 16
1.0
 26
0.0
 36
0.0
 17
0.0
 27
1.0
 37
0.0
 76
     0
330
B
  0
MLINESTYLE
  5
1C
102
{ACAD_REACTORS
330
1B
102
}
330
1B
100
AcDbMlineStyle
  2
STANDARD
 70
     0
  3

 62
     0
 51
90.0
 52
90.0
 71
     2
 49
0.5
 62
   256
  6
BYLAYER
 49
-0.5
 62
   256
  6
BYLAYER
  0
ACDBPLACEHOLDER
  5
276
102
{ACAD_REACTORS
330
275
102
}
330
275
  0
XRECORD
  5
2B6
102
{ACAD_REACTORS
330
2B4
102
}
330
2B4
100
AcDbXrecord
280
     1
  0
ENDSEC
  0
EOF
