  0
SECTION
  2
HEADER
  9
$ACADVER
  1
AC1015
  9
$ACADMAINTVER
 70
    10
  9
$DWGCODEPAGE
  3
ANSI_932
  9
$INSBASE
 10
0.0
 20
0.0
 30
0.0
  9
$EXTMIN
 10
13.0
 20
8.999988
 30
0.0
  9
$EXTMAX
 10
406.0
 20
286.9999729999999
 30
0.0
  9
$LIMMIN
 10
0.0
 20
0.0
  9
$LIMMAX
 10
420.0
 20
297.0
  9
$ORTHOMODE
 70
     1
  9
$REGENMODE
 70
     1
  9
$FILLMODE
 70
     1
  9
$QTEXTMODE
 70
     0
  9
$MIRRTEXT
 70
     1
  9
$LTSCALE
 40
1.0
  9
$ATTMODE
 70
     1
  9
$TEXTSIZE
 40
0.0
  9
$TRACEWID
 40
0.05
  9
$TEXTSTYLE
  7
STANDARD
  9
$CLAYER
  8
LAY-1
  9
$CELTYPE
  6
CONTINUOUS
  9
$CECOLOR
 62
   256
  9
$CELTSCALE
 40
1.0
  9
$DISPSILH
 70
     0
  9
$DIMSCALE
 40
1.0
  9
$DIMASZ
 40
0.18
  9
$DIMEXO
 40
0.0625
  9
$DIMDLI
 40
0.38
  9
$DIMRND
 40
0.0
  9
$DIMDLE
 40
0.0
  9
$DIMEXE
 40
0.18
  9
$DIMTP
 40
0.0
  9
$DIMTM
 40
0.0
  9
$DIMTXT
 40
0.18
  9
$DIMCEN
 40
0.09
  9
$DIMTSZ
 40
0.0
  9
$DIMTOL
 70
     0
  9
$DIMLIM
 70
     0
  9
$DIMTIH
 70
     1
  9
$DIMTOH
 70
     1
  9
$DIMSE1
 70
     0
  9
$DIMSE2
 70
     0
  9
$DIMTAD
 70
     0
  9
$DIMZIN
 70
     0
  9
$DIMBLK
  1

  9
$DIMASO
 70
     1
  9
$DIMSHO
 70
     1
  9
$DIMPOST
  1

  9
$DIMAPOST
  1

  9
$DIMALT
 70
     0
  9
$DIMALTD
 70
     2
  9
$DIMALTF
 40
25.4
  9
$DIMLFAC
 40
1.0
  9
$DIMTOFL
 70
     0
  9
$DIMTVP
 40
0.0
  9
$DIMTIX
 70
     0
  9
$DIMSOXD
 70
     0
  9
$DIMSAH
 70
     0
  9
$DIMBLK1
  1

  9
$DIMBLK2
  1

  9
$DIMSTYLE
  2
STANDARD
  9
$DIMCLRD
 70
     0
  9
$DIMCLRE
 70
     0
  9
$DIMCLRT
 70
     0
  9
$DIMTFAC
 40
1.0
  9
$DIMGAP
 40
0.09
  9
$DIMJUST
 70
     0
  9
$DIMSD1
 70
     0
  9
$DIMSD2
 70
     0
  9
$DIMTOLJ
 70
     1
  9
$DIMTZIN
 70
     0
  9
$DIMALTZ
 70
     0
  9
$DIMALTTZ
 70
     0
  9
$DIMUPT
 70
     0
  9
$DIMDEC
 70
     4
  9
$DIMTDEC
 70
     4
  9
$DIMALTU
 70
     2
  9
$DIMALTTD
 70
     2
  9
$DIMTXSTY
  7
STANDARD
  9
$DIMAUNIT
 70
     0
  9
$DIMADEC
 70
     0
  9
$DIMALTRND
 40
0.0
  9
$DIMAZIN
 70
     0
  9
$DIMDSEP
 70
    46
  9
$DIMATFIT
 70
     3
  9
$DIMFRAC
 70
     0
  9
$DIMLDRBLK
  1

  9
$DIMLUNIT
 70
     2
  9
$DIMLWD
 70
    -2
  9
$DIMLWE
 70
    -2
  9
$DIMTMOVE
 70
     0
  9
$LUNITS
 70
     2
  9
$LUPREC
 70
     4
  9
$SKETCHINC
 40
0.1
  9
$FILLETRAD
 40
0.0
  9
$AUNITS
 70
     0
  9
$AUPREC
 70
     0
  9
$MENU
  1
acad
  9
$ELEVATION
 40
0.0
  9
$PELEVATION
 40
0.0
  9
$THICKNESS
 40
0.0
  9
$LIMCHECK
 70
     0
  9
$CHAMFERA
 40
0.0
  9
$CHAMFERB
 40
0.0
  9
$CHAMFERC
 40
0.0
  9
$CHAMFERD
 40
0.0
  9
$SKPOLY
 70
     0
  9
$TDCREATE
 40
2452142.443653472
  9
$TDUCREATE
 40
2452142.068653472
  9
$TDUPDATE
 40
2452159.047926967
  9
$TDUUPDATE
 40
2452158.672926967
  9
$TDINDWG
 40
0.0394869444
  9
$TDUSRTIMER
 40
0.0394869444
  9
$USRTIMER
 70
     1
  9
$ANGBASE
 50
0.0
  9
$ANGDIR
 70
     0
  9
$PDMODE
 70
     0
  9
$PDSIZE
 40
0.0
  9
$PLINEWID
 40
0.0
  9
$SPLFRAME
 70
     0
  9
$SPLINETYPE
 70
     6
  9
$SPLINESEGS
 70
     8
  9
$HANDSEED
  5
2FF
  9
$SURFTAB1
 70
     6
  9
$SURFTAB2
 70
     6
  9
$SURFTYPE
 70
     6
  9
$SURFU
 70
     6
  9
$SURFV
 70
     6
  9
$UCSBASE
  2

  9
$UCSNAME
  2

  9
$UCSORG
 10
0.0
 20
0.0
 30
0.0
  9
$UCSXDIR
 10
1.0
 20
0.0
 30
0.0
  9
$UCSYDIR
 10
0.0
 20
1.0
 30
0.0
  9
$UCSORTHOREF
  2

  9
$UCSORTHOVIEW
 70
     0
  9
$UCSORGTOP
 10
0.0
 20
0.0
 30
0.0
  9
$UCSORGBOTTOM
 10
0.0
 20
0.0
 30
0.0
  9
$UCSORGLEFT
 10
0.0
 20
0.0
 30
0.0
  9
$UCSORGRIGHT
 10
0.0
 20
0.0
 30
0.0
  9
$UCSORGFRONT
 10
0.0
 20
0.0
 30
0.0
  9
$UCSORGBACK
 10
0.0
 20
0.0
 30
0.0
  9
$PUCSBASE
  2

  9
$PUCSNAME
  2

  9
$PUCSORG
 10
0.0
 20
0.0
 30
0.0
  9
$PUCSXDIR
 10
1.0
 20
0.0
 30
0.0
  9
$PUCSYDIR
 10
0.0
 20
1.0
 30
0.0
  9
$PUCSORTHOREF
  2

  9
$PUCSORTHOVIEW
 70
     0
  9
$PUCSORGTOP
 10
0.0
 20
0.0
 30
0.0
  9
$PUCSORGBOTTOM
 10
0.0
 20
0.0
 30
0.0
  9
$PUCSORGLEFT
 10
0.0
 20
0.0
 30
0.0
  9
$PUCSORGRIGHT
 10
0.0
 20
0.0
 30
0.0
  9
$PUCSORGFRONT
 10
0.0
 20
0.0
 30
0.0
  9
$PUCSORGBACK
 10
0.0
 20
0.0
 30
0.0
  9
$USERI1
 70
     0
  9
$USERI2
 70
     0
  9
$USERI3
 70
     0
  9
$USERI4
 70
     0
  9
$USERI5
 70
     0
  9
$USERR1
 40
0.0
  9
$USERR2
 40
0.0
  9
$USERR3
 40
0.0
  9
$USERR4
 40
0.0
  9
$USERR5
 40
0.0
  9
$WORLDVIEW
 70
     1
  9
$SHADEDGE
 70
     3
  9
$SHADEDIF
 70
    70
  9
$TILEMODE
 70
     1
  9
$MAXACTVP
 70
    16
  9
$PINSBASE
 10
0.0
 20
0.0
 30
0.0
  9
$PLIMCHECK
 70
     0
  9
$PEXTMIN
 10
1.000000000000000E+20
 20
1.000000000000000E+20
 30
1.000000000000000E+20
  9
$PEXTMAX
 10
-1.000000000000000E+20
 20
-1.000000000000000E+20
 30
-1.000000000000000E+20
  9
$PLIMMIN
 10
0.0
 20
0.0
  9
$PLIMMAX
 10
12.0
 20
9.0
  9
$UNITMODE
 70
     0
  9
$VISRETAIN
 70
     0
  9
$PLINEGEN
 70
     1
  9
$PSLTSCALE
 70
     0
  9
$TREEDEPTH
 70
  3020
  9
$CMLSTYLE
  2
STANDARD
  9
$CMLJUST
 70
     0
  9
$CMLSCALE
 40
1.0
  9
$PROXYGRAPHICS
 70
     1
  9
$MEASUREMENT
 70
     0
  9
$CELWEIGHT
370
    -1
  9
$ENDCAPS
280
     0
  9
$JOINSTYLE
280
     0
  9
$LWDISPLAY
290
     0
  9
$INSUNITS
 70
     0
  9
$HYPERLINKBASE
  1

  9
$STYLESHEET
  1

  9
$XEDIT
290
     1
  9
$CEPSNTYPE
380
     0
  9
$PSTYLEMODE
290
     1
  9
$FINGERPRINTGUID
  2
{3E0ED61E-6176-459C-956B-9B663D7DBFA5}
  9
$VERSIONGUID
  2
{4344E48D-D063-47BA-A09A-E0F32BCA4411}
  9
$EXTNAMES
290
     1
  9
$PSVPSCALE
 40
0.0
  9
$OLESTARTUP
290
     0
  0
ENDSEC
  0
SECTION
  2
CLASSES
  0
CLASS
  1
LWPOLYLINE
  2
AcDbPolyline
  3
AutoCAD 2000
 90
    32768
280
     0
281
     1
  0
CLASS
  1
IMAGE
  2
AcDbRasterImage
  3
ISM
 90
    32895
280
     0
281
     1
  0
CLASS
  1
OLE2FRAME
  2
AcDbOle2Frame
  3
AutoCAD 2000
 90
    32768
280
     0
281
     1
  0
CLASS
  1
HATCH
  2
AcDbHatch
  3
AutoCAD 2000
 90
    32768
280
     0
281
     1
  0
CLASS
  1
DICTIONARYVAR
  2
AcDbDictionaryVar
  3
AutoCAD 2000
 90
    32768
280
     0
281
     0
  0
CLASS
  1
RASTERVARIABLES
  2
AcDbRasterVariables
  3
ISM
 90
    32768
280
     0
281
     0
  0
CLASS
  1
IMAGEDEF
  2
AcDbRasterImageDef
  3
ISM
 90
    32768
280
     0
281
     0
  0
CLASS
  1
IMAGEDEF_REACTOR
  2
AcDbRasterImageDefReactor
  3
ISM
 90
    32769
280
     0
281
     0
  0
CLASS
  1
IDBUFFER
  2
AcDbIdBuffer
  3
AutoCAD 2000
 90
    32768
280
     0
281
     0
  0
CLASS
  1
SPATIAL_FILTER
  2
AcDbSpatialFilter
  3
AutoCAD 2000
 90
    32768
280
     0
281
     0
  0
CLASS
  1
XRECORD
  2
AcDbXrecord
  3
AutoCAD 2000
 90
    32768
280
     0
281
     0
  0
CLASS
  1
SORTENTSTABLE
  2
AcDbSortentsTable
  3
AutoCAD 2000
 90
    32768
280
     0
281
     0
  0
CLASS
  1
LAYER_INDEX
  2
AcDbLayerIndex
  3
AutoCAD 2000
 90
    32768
280
     0
281
     0
  0
CLASS
  1
SPATIAL_INDEX
  2
AcDbSpatialIndex
  3
AutoCAD 2000
 90
    32768
280
     0
281
     0
  0
CLASS
  1
OBJECT_PTR
  2
CAseDLPNTableRecord
  3
ASE-LPNTableRecord
 90
    32769
280
     0
281
     0
  0
CLASS
  1
LAYOUT
  2
AcDbLayout
  3
AutoCAD 2000
 90
        0
280
     0
281
     0
  0
CLASS
  1
PLOTSETTINGS
  2
AcDbPlotSettings
  3
AutoCAD 2000
 90
    32768
280
     0
281
     0
  0
CLASS
  1
ACDBDICTIONARYWDFLT
  2
AcDbDictionaryWithDefault
  3
AutoCAD 2000
 90
        0
280
     0
281
     0
  0
CLASS
  1
ACDBPLACEHOLDER
  2
AcDbPlaceHolder
  3
AutoCAD 2000
 90
        0
280
     0
281
     0
  0
CLASS
  1
VBA_PROJECT
  2
AcDbVbaProject
  3
acadvba
 90
    32768
280
     0
281
     0
  0
CLASS
  1
WIPEOUT
  2
AcDbWipeout
  3
WipeOut|AutoCAD Express Tool|expresstools@autodesk.com
 90
    32768
280
     0
281
     1
  0
CLASS
  1
WIPEOUTVARIABLES
  2
AcDbWipeoutVariables
  3
WipeOut|AutoCAD Express Tool|expresstools@autodesk.com
 90
    32768
280
     0
281
     0
  0
CLASS
  1
RTEXT
  2
RText
  3
RText|AutoCAD Express Tool|expresstools@autodesk.com
 90
    32768
280
     0
281
     1
  0
CLASS
  1
ARCALIGNEDTEXT
  2
AcDbArcAlignedText
  3
ATEXT|AutoCAD Express Tool|expresstools@autodesk.com
 90
    32768
280
     0
281
     1
  0
ENDSEC
  0
SECTION
  2
TABLES
  0
TABLE
  2
VPORT
  5
7
330
0
100
AcDbSymbolTable
 70
     2
  0
VPORT
  5
2FE
330
7
100
AcDbSymbolTableRecord
100
AcDbViewportTableRecord
  2
*Active
 70
     0
 10
0.0
 20
0.0
 11
1.0
 21
1.0
 12
209.5033273933264
 22
148.0014960522548
 13
0.0
 23
0.0
 14
1.0
 24
1.0
 15
0.0
 25
0.0
 16
0.0
 26
0.0
 36
1.0
 17
0.0
 27
0.0
 37
0.0
 40
280.7643502434514
 41
1.76847290640394
 42
50.0
 43
0.0
 44
0.0
 50
0.0
 51
0.0
 71
     0
 72
   100
 73
     1
 74
     1
 75
     0
 76
     0
 77
     0
 78
     0
281
     0
 65
     1
110
0.0
120
0.0
130
0.0
111
1.0
121
0.0
131
0.0
112
0.0
122
1.0
132
0.0
 79
     0
146
0.0
  0
ENDTAB
  0
TABLE
  2
LTYPE
  5
4
330
0
100
AcDbSymbolTable
 70
     5
  0
LTYPE
  5
11
330
4
100
AcDbSymbolTableRecord
100
AcDbLinetypeTableRecord
  2
BYBLOCK
 70
     0
  3

 72
    65
 73
     0
 40
0.0
  0
LTYPE
  5
12
330
4
100
AcDbSymbolTableRecord
100
AcDbLinetypeTableRecord
  2
BYLAYER
 70
     0
  3

 72
    65
 73
     0
 40
0.0
  0
LTYPE
  5
13
330
4
100
AcDbSymbolTableRecord
100
AcDbLinetypeTableRecord
  2
CONTINUOUS
 70
     0
  3
実線
 72
    65
 73
     0
 40
0.0
  0
LTYPE
  5
1D
330
4
100
AcDbSymbolTableRecord
100
AcDbLinetypeTableRecord
  2
DASHED
 70
     0
  3
破線
 72
    65
 73
     2
 40
3.799999999999998
 49
3.0
 74
     0
 49
-0.8
 74
     0
  0
LTYPE
  5
1E
330
4
100
AcDbSymbolTableRecord
100
AcDbLinetypeTableRecord
  2
DOT
 70
     0
  3
点線
 72
    65
 73
     2
 40
2.0
 49
1.0
 74
     0
 49
-1.0
 74
     0
  0
LTYPE
  5
1F
330
4
100
AcDbSymbolTableRecord
100
AcDbLinetypeTableRecord
  2
DASHDOT
 70
     0
  3
一点鎖線
 72
    65
 73
     4
 40
25.6
 49
20.0
 74
     0
 49
-2.0
 74
     0
 49
1.6
 74
     0
 49
-2.0
 74
     0
  0
LTYPE
  5
20
330
4
100
AcDbSymbolTableRecord
100
AcDbLinetypeTableRecord
  2
DIVIDE
 70
     0
  3
二点鎖線
 72
    65
 73
     6
 40
31.2
 49
20.0
 74
     0
 49
-2.399999999999999
 74
     0
 49
2.0
 74
     0
 49
-2.399999999999999
 74
     0
 49
2.0
 74
     0
 49
-2.399999999999999
 74
     0
  0
ENDTAB
  0
TABLE
  2
LAYER
  5
2
330
0
100
AcDbSymbolTable
 70
     2
  0
LAYER
  5
14
330
2
100
AcDbSymbolTableRecord
100
AcDbLayerTableRecord
  2
0
 70
     0
 62
     7
  6
CONTINUOUS
370
    -3
390
25E
  0
LAYER
  5
25
330
2
100
AcDbSymbolTableRecord
100
AcDbLayerTableRecord
  2
LAY-1
 70
     0
 62
     7
  6
CONTINUOUS
370
    -3
390
25E
  0
ENDTAB
  0
TABLE
  2
STYLE
  5
3
330
0
100
AcDbSymbolTable
 70
     5
  0
STYLE
  5
17
330
3
100
AcDbSymbolTableRecord
100
AcDbTextStyleTableRecord
  2
STANDARD
 70
     0
 40
0.0
 41
1.0
 50
0.0
 71
     0
 42
0.0
  3
monotxt
  4

  0
STYLE
  5
21
330
3
100
AcDbSymbolTableRecord
100
AcDbTextStyleTableRecord
  2
EXCADSTD
 70
     0
 40
0.0
 41
1.0
 50
0.0
 71
     0
 42
0.2
  3
monotxt
  4
extfont
  0
STYLE
  5
22
330
3
100
AcDbSymbolTableRecord
100
AcDbTextStyleTableRecord
  2
EXCADVERT
 70
     4
 40
0.0
 41
1.0
 50
0.0
 71
     0
 42
0.286885
  3
monotxt
  4
extfont
  0
STYLE
  5
23
330
3
100
AcDbSymbolTableRecord
100
AcDbTextStyleTableRecord
  2
EXCADSTD2
 70
     0
 40
0.0
 41
1.0
 50
0.0
 71
     0
 42
0.2
  3
monotxt
  4
extfont
  0
STYLE
  5
24
330
3
100
AcDbSymbolTableRecord
100
AcDbTextStyleTableRecord
  2
EXCADVERT2
 70
     4
 40
0.0
 41
1.0
 50
0.0
 71
     0
 42
0.286885
  3
monotxt
  4
extfont
  0
ENDTAB
  0
TABLE
  2
VIEW
  5
5
330
0
100
AcDbSymbolTable
 70
     0
  0
ENDTAB
  0
TABLE
  2
UCS
  5
6
330
0
100
AcDbSymbolTable
 70
     0
  0
ENDTAB
  0
TABLE
  2
APPID
  5
8
330
0
100
AcDbSymbolTable
 70
     2
  0
APPID
  5
16
330
8
100
AcDbSymbolTableRecord
100
AcDbRegAppTableRecord
  2
ACAD
 70
     0
  0
APPID
  5
2D4
330
8
100
AcDbSymbolTableRecord
100
AcDbRegAppTableRecord
  2
DCO15
 70
     0
  0
ENDTAB
  0
TABLE
  2
DIMSTYLE
  5
9
330
0
100
AcDbSymbolTable
 70
     1
100
AcDbDimStyleTable
 71
     0
  0
DIMSTYLE
105
18
330
9
100
AcDbSymbolTableRecord
100
AcDbDimStyleTableRecord
  2
STANDARD
 70
     0
340
17
  0
ENDTAB
  0
TABLE
  2
BLOCK_RECORD
  5
1
330
0
100
AcDbSymbolTable
 70
     9
  0
BLOCK_RECORD
  5
A
330
1
100
AcDbSymbolTableRecord
100
AcDbBlockTableRecord
  2
*MODEL_SPACE
340
261
  0
BLOCK_RECORD
  5
B
330
1
100
AcDbSymbolTableRecord
100
AcDbBlockTableRecord
  2
*PAPER_SPACE
340
262
  0
BLOCK_RECORD
  5
26
330
1
100
AcDbSymbolTableRecord
100
AcDbBlockTableRecord
  2
_EX_NORM
340
0
  0
BLOCK_RECORD
  5
27
330
1
100
AcDbSymbolTableRecord
100
AcDbBlockTableRecord
  2
_EX_BNORM
340
0
  0
BLOCK_RECORD
  5
28
330
1
100
AcDbSymbolTableRecord
100
AcDbBlockTableRecord
  2
_EX_BCIR
340
0
  0
BLOCK_RECORD
  5
29
330
1
100
AcDbSymbolTableRecord
100
AcDbBlockTableRecord
  2
_EX_RCIVIL
340
0
  0
BLOCK_RECORD
  5
2A
330
1
100
AcDbSymbolTableRecord
100
AcDbBlockTableRecord
  2
_EX_SLANT
340
0
  0
BLOCK_RECORD
  5
2B
330
1
100
AcDbSymbolTableRecord
100
AcDbBlockTableRecord
  2
_EX_NONE
340
0
  0
BLOCK_RECORD
  5
2C
330
1
100
AcDbSymbolTableRecord
100
AcDbBlockTableRecord
  2
_EX_CIVIL
340
0
  0
BLOCK_RECORD
  5
2D
330
1
100
AcDbSymbolTableRecord
100
AcDbBlockTableRecord
  2
_EX_WCIR
340
0
  0
ENDTAB
  0
ENDSEC
  0
SECTION
  2
BLOCKS
  0
BLOCK
  5
D
330
A
100
AcDbEntity
  8
0
100
AcDbBlockBegin
  2
*MODEL_SPACE
 70
     0
 10
0.0
 20
0.0
 30
0.0
  3
*MODEL_SPACE
  1

  0
ENDBLK
  5
E
330
A
100
AcDbEntity
  8
0
100
AcDbBlockEnd
  0
BLOCK
  5
F
330
B
100
AcDbEntity
 67
     1
  8
0
100
AcDbBlockBegin
  2
*PAPER_SPACE
 70
     0
 10
0.0
 20
0.0
 30
0.0
  3
*PAPER_SPACE
  1

  0
ENDBLK
  5
10
330
B
100
AcDbEntity
 67
     1
  8
0
100
AcDbBlockEnd
  0
BLOCK
  5
2E
330
26
100
AcDbEntity
  8
0
100
AcDbBlockBegin
  2
_EX_NORM
 70
     0
 10
0.0
 20
0.0
 30
0.0
  3
_EX_NORM
  1

  0
LINE
  5
2F
330
26
100
AcDbEntity
  8
0
  6
Continuous
 62
     0
100
AcDbLine
 10
0.0
 20
0.0
 30
0.0
 11
-1.0
 21
0.0
 31
0.0
  0
LINE
  5
30
330
26
100
AcDbEntity
  8
0
  6
Continuous
 62
     0
100
AcDbLine
 10
0.0
 20
0.0
 30
0.0
 11
-0.9607689999999999
 21
0.27735
 31
0.0
  0
LINE
  5
31
330
26
100
AcDbEntity
  8
0
  6
Continuous
 62
     0
100
AcDbLine
 10
0.0
 20
0.0
 30
0.0
 11
-0.9607689999999999
 21
-0.27735
 31
0.0
  0
ENDBLK
  5
32
330
26
100
AcDbEntity
  8
0
100
AcDbBlockEnd
  0
BLOCK
  5
33
330
27
100
AcDbEntity
  8
0
100
AcDbBlockBegin
  2
_EX_BNORM
 70
     0
 10
0.0
 20
0.0
 30
0.0
  3
_EX_BNORM
  1

  0
LINE
  5
34
330
27
100
AcDbEntity
  8
0
  6
Continuous
 62
     0
100
AcDbLine
 10
0.0
 20
0.0
 30
0.0
 11
-1.0
 21
0.0
 31
0.0
  0
LINE
  5
35
330
27
100
AcDbEntity
  8
0
  6
Continuous
 62
     0
100
AcDbLine
 10
0.0
 20
0.0
 30
0.0
 11
-0.9607689999999999
 21
0.27735
 31
0.0
  0
LINE
  5
36
330
27
100
AcDbEntity
  8
0
  6
Continuous
 62
     0
100
AcDbLine
 10
0.0
 20
0.0
 30
0.0
 11
-0.9607689999999999
 21
-0.27735
 31
0.0
  0
LINE
  5
37
330
27
100
AcDbEntity
  8
0
  6
Continuous
 62
     0
100
AcDbLine
 10
0.0
 20
0.0
 30
0.0
 11
-0.9607689999999999
 21
0.138768
 31
0.0
  0
LINE
  5
38
330
27
100
AcDbEntity
  8
0
  6
Continuous
 62
     0
100
AcDbLine
 10
0.0
 20
0.0
 30
0.0
 11
-0.9607689999999999
 21
-0.138768
 31
0.0
  0
LINE
  5
39
330
27
100
AcDbEntity
  8
0
  6
Continuous
 62
     0
100
AcDbLine
 10
-0.9607689999999999
 20
0.27735
 30
0.0
 11
-0.9607689999999999
 21
-0.27735
 31
0.0
  0
ENDBLK
  5
3A
330
27
100
AcDbEntity
  8
0
100
AcDbBlockEnd
  0
BLOCK
  5
3B
330
28
100
AcDbEntity
  8
0
100
AcDbBlockBegin
  2
_EX_BCIR
 70
     0
 10
0.0
 20
0.0
 30
0.0
  3
_EX_BCIR
  1

  0
LINE
  5
3C
330
28
100
AcDbEntity
  8
0
  6
Continuous
 62
     0
100
AcDbLine
 10
0.0
 20
0.0
 30
0.0
 11
-1.0
 21
0.0
 31
0.0
  0
CIRCLE
  5
3D
330
28
100
AcDbEntity
  8
0
  6
Continuous
 62
     0
100
AcDbCircle
 10
0.0
 20
0.0
 30
0.0
 40
0.5
  0
CIRCLE
  5
3E
330
28
100
AcDbEntity
  8
0
  6
Continuous
 62
     0
100
AcDbCircle
 10
0.0
 20
0.0
 30
0.0
 40
0.25
  0
ENDBLK
  5
3F
330
28
100
AcDbEntity
  8
0
100
AcDbBlockEnd
  0
BLOCK
  5
40
330
29
100
AcDbEntity
  8
0
100
AcDbBlockBegin
  2
_EX_RCIVIL
 70
     0
 10
0.0
 20
0.0
 30
0.0
  3
_EX_RCIVIL
  1

  0
LINE
  5
41
330
29
100
AcDbEntity
  8
0
  6
Continuous
 62
     0
100
AcDbLine
 10
0.0
 20
0.0
 30
0.0
 11
-1.0
 21
0.0
 31
0.0
  0
LINE
  5
42
330
29
100
AcDbEntity
  8
0
  6
Continuous
 62
     0
100
AcDbLine
 10
-1.0
 20
-0.25
 30
0.0
 11
0.0
 21
-0.25
 31
0.0
  0
LINE
  5
43
330
29
100
AcDbEntity
  8
0
  6
Continuous
 62
     0
100
AcDbLine
 10
-1.0
 20
-0.125
 30
0.0
 11
0.0
 21
-0.125
 31
0.0
  0
ENDBLK
  5
44
330
29
100
AcDbEntity
  8
0
100
AcDbBlockEnd
  0
BLOCK
  5
45
330
2A
100
AcDbEntity
  8
0
100
AcDbBlockBegin
  2
_EX_SLANT
 70
     0
 10
0.0
 20
0.0
 30
0.0
  3
_EX_SLANT
  1

  0
LINE
  5
46
330
2A
100
AcDbEntity
  8
0
  6
Continuous
 62
     0
100
AcDbLine
 10
0.0
 20
0.0
 30
0.0
 11
-1.0
 21
0.0
 31
0.0
  0
LINE
  5
47
330
2A
100
AcDbEntity
  8
0
  6
Continuous
 62
     0
100
AcDbLine
 10
0.7071069999999999
 20
0.7071069999999999
 30
0.0
 11
-0.7071069999999999
 21
-0.7071069999999999
 31
0.0
  0
ENDBLK
  5
48
330
2A
100
AcDbEntity
  8
0
100
AcDbBlockEnd
  0
BLOCK
  5
49
330
2B
100
AcDbEntity
  8
0
100
AcDbBlockBegin
  2
_EX_NONE
 70
     0
 10
0.0
 20
0.0
 30
0.0
  3
_EX_NONE
  1

  0
LINE
  5
4A
330
2B
100
AcDbEntity
  8
0
  6
Continuous
 62
     0
100
AcDbLine
 10
0.0
 20
0.0
 30
0.0
 11
-1.0
 21
0.0
 31
0.0
  0
ENDBLK
  5
4B
330
2B
100
AcDbEntity
  8
0
100
AcDbBlockEnd
  0
BLOCK
  5
4C
330
2C
100
AcDbEntity
  8
0
100
AcDbBlockBegin
  2
_EX_CIVIL
 70
     0
 10
0.0
 20
0.0
 30
0.0
  3
_EX_CIVIL
  1

  0
LINE
  5
4D
330
2C
100
AcDbEntity
  8
0
  6
Continuous
 62
     0
100
AcDbLine
 10
0.0
 20
0.0
 30
0.0
 11
-1.0
 21
0.0
 31
0.0
  0
LINE
  5
4E
330
2C
100
AcDbEntity
  8
0
  6
Continuous
 62
     0
100
AcDbLine
 10
-1.0
 20
0.25
 30
0.0
 11
0.0
 21
0.25
 31
0.0
  0
LINE
  5
4F
330
2C
100
AcDbEntity
  8
0
  6
Continuous
 62
     0
100
AcDbLine
 10
-1.0
 20
0.125
 30
0.0
 11
0.0
 21
0.125
 31
0.0
  0
ENDBLK
  5
50
330
2C
100
AcDbEntity
  8
0
100
AcDbBlockEnd
  0
BLOCK
  5
51
330
2D
100
AcDbEntity
  8
0
100
AcDbBlockBegin
  2
_EX_WCIR
 70
     0
 10
0.0
 20
0.0
 30
0.0
  3
_EX_WCIR
  1

  0
LINE
  5
52
330
2D
100
AcDbEntity
  8
0
  6
Continuous
 62
     0
100
AcDbLine
 10
0.0
 20
0.0
 30
0.0
 11
-1.0
 21
0.0
 31
0.0
  0
CIRCLE
  5
53
330
2D
100
AcDbEntity
  8
0
  6
Continuous
 62
     0
100
AcDbCircle
 10
0.0
 20
0.0
 30
0.0
 40
0.5
  0
ENDBLK
  5
54
330
2D
100
AcDbEntity
  8
0
100
AcDbBlockEnd
  0
ENDSEC
  0
SECTION
  2
ENTITIES
  0
LINE
  5
83
330
A
100
AcDbEntity
  8
LAY-1
  6
Continuous
 62
     3
100
AcDbLine
 10
406.0
 20
9.000011
 30
0.0
 11
406.0
 21
286.9999729999999
 31
0.0
  0
LINE
  5
84
330
A
100
AcDbEntity
  8
LAY-1
  6
Continuous
 62
     3
100
AcDbLine
 10
406.0
 20
286.9999729999999
 30
0.0
 11
13.0
 21
286.9999729999999
 31
0.0
  0
LINE
  5
85
330
A
100
AcDbEntity
  8
LAY-1
  6
Continuous
 62
     3
100
AcDbLine
 10
13.0
 20
286.9999729999999
 30
0.0
 11
13.0
 21
9.0
 31
0.0
  0
LINE
  5
86
330
A
100
AcDbEntity
  8
LAY-1
  6
Continuous
 62
     3
100
AcDbLine
 10
13.0
 20
9.0
 30
0.0
 11
406.0
 21
9.0
 31
0.0
  0
POINT
  5
92
330
A
100
AcDbEntity
  8
LAY-1
  6
Continuous
 62
     5
100
AcDbPoint
 10
406.0
 20
9.000011
 30
0.0
  0
POINT
  5
93
330
A
100
AcDbEntity
  8
LAY-1
  6
Continuous
 62
     5
100
AcDbPoint
 10
406.0
 20
19.00001099999998
 30
0.0
  0
POINT
  5
94
330
A
100
AcDbEntity
  8
LAY-1
  6
Continuous
 62
     5
100
AcDbPoint
 10
406.0
 20
9.000011
 30
0.0
  0
POINT
  5
95
330
A
100
AcDbEntity
  8
LAY-1
  6
Continuous
 62
     5
100
AcDbPoint
 10
406.0
 20
29.00001099999998
 30
0.0
  0
POINT
  5
96
330
A
100
AcDbEntity
  8
LAY-1
  6
Continuous
 62
     5
100
AcDbPoint
 10
406.0
 20
9.000011
 30
0.0
  0
POINT
  5
97
330
A
100
AcDbEntity
  8
LAY-1
  6
Continuous
 62
     5
100
AcDbPoint
 10
406.0
 20
39.000011
 30
0.0
  0
POINT
  5
98
330
A
100
AcDbEntity
  8
LAY-1
  6
Continuous
 62
     5
100
AcDbPoint
 10
406.0
 20
9.000011
 30
0.0
  0
POINT
  5
99
330
A
100
AcDbEntity
  8
LAY-1
  6
Continuous
 62
     5
100
AcDbPoint
 10
246.0
 20
9.000018999999998
 30
0.0
  0
POINT
  5
A2
330
A
100
AcDbEntity
  8
LAY-1
  6
Continuous
 62
     5
100
AcDbPoint
 10
406.0
 20
9.000011
 30
0.0
  0
POINT
  5
A3
330
A
100
AcDbEntity
  8
LAY-1
  6
Continuous
 62
     5
100
AcDbPoint
 10
346.0
 20
9.000011
 30
0.0
  0
POINT
  5
B9
330
A
100
AcDbEntity
  8
LAY-1
  6
Continuous
 62
     5
100
AcDbPoint
 10
236.6304319999999
 20
8.999988
 30
0.0
  0
LWPOLYLINE
  5
BA
330
A
100
AcDbEntity
  8
LAY-1
  6
Continuous
 62
     3
100
AcDbPolyline
 90
        4
 70
   128
 43
0.0
 10
324.5
 20
79.0
 10
324.5
 20
80.0
 10
399.5
 20
80.0
 10
399.5
 20
79.0
  0
LWPOLYLINE
  5
C0
330
A
100
AcDbEntity
  8
LAY-1
  6
Continuous
 62
     3
100
AcDbPolyline
 90
        4
 70
   128
 43
0.0
 10
324.5
 20
80.0
 10
324.5
 20
81.0
 10
399.5
 20
81.0
 10
399.5
 20
80.0
  0
LWPOLYLINE
  5
C6
330
A
100
AcDbEntity
  8
LAY-1
  6
Continuous
 62
     3
100
AcDbPolyline
 90
        4
 70
   128
 43
0.0
 10
324.5
 20
81.0
 10
324.5
 20
101.5
 10
326.1
 20
101.5
 10
326.1
 20
81.0
  0
LWPOLYLINE
  5
CC
330
A
100
AcDbEntity
  8
LAY-1
  6
Continuous
 62
     3
100
AcDbPolyline
 90
        4
 70
   128
 43
0.0
 10
399.5
 20
81.0
 10
399.5
 20
101.5
 10
397.8999999999998
 20
101.5
 10
397.8999999999998
 20
81.0
  0
LWPOLYLINE
  5
D2
330
A
100
AcDbEntity
  8
LAY-1
  6
Continuous
 62
     3
100
AcDbPolyline
 90
        5
 70
   128
 43
0.0
 10
326.1
 20
101.5
 10
326.1
 20
103.0
 10
397.8999999999998
 20
103.0
 10
397.8999999999998
 20
93.0
 10
326.1
 20
93.0
  0
LWPOLYLINE
  5
D9
330
A
100
AcDbEntity
  8
LAY-1
  6
Continuous
 62
     3
100
AcDbPolyline
 90
        4
 70
   128
 43
0.0
 10
187.0
 20
113.0
 10
177.0
 20
113.0
 10
177.0
 20
103.0
 10
187.0
 20
103.0
  0
POINT
  5
DF
330
A
100
AcDbEntity
  8
LAY-1
  6
Continuous
 62
     3
100
AcDbPoint
 10
247.0
 20
103.0
 30
0.0
  0
POINT
  5
E0
330
A
100
AcDbEntity
  8
LAY-1
  6
Continuous
 62
     3
100
AcDbPoint
 10
187.0
 20
108.0
 30
0.0
  0
POINT
  5
E1
330
A
100
AcDbEntity
  8
LAY-1
  6
Continuous
 62
     3
100
AcDbPoint
 10
187.0
 20
110.4999999999999
 30
0.0
  0
POINT
  5
E2
330
A
100
AcDbEntity
  8
LAY-1
  6
Continuous
 62
     3
100
AcDbPoint
 10
187.0
 20
105.4999999999999
 30
0.0
  0
POINT
  5
E3
330
A
100
AcDbEntity
  8
LAY-1
  6
Continuous
 62
     3
100
AcDbPoint
 10
217.0
 20
103.0
 30
0.0
  0
POINT
  5
E4
330
A
100
AcDbEntity
  8
LAY-1
  6
Continuous
 62
     3
100
AcDbPoint
 10
234.5
 20
103.0
 30
0.0
  0
POINT
  5
E5
330
A
100
AcDbEntity
  8
LAY-1
  6
Continuous
 62
     3
100
AcDbPoint
 10
199.5
 20
103.0
 30
0.0
  0
POINT
  5
E6
330
A
100
AcDbEntity
  8
LAY-1
  6
Continuous
 62
     3
100
AcDbPoint
 10
217.0
 20
123.0
 30
0.0
  0
POINT
  5
E7
330
A
100
AcDbEntity
  8
LAY-1
  6
Continuous
 62
     3
100
AcDbPoint
 10
219.4999999999999
 20
123.0
 30
0.0
  0
POINT
  5
E8
330
A
100
AcDbEntity
  8
LAY-1
  6
Continuous
 62
     3
100
AcDbPoint
 10
214.5
 20
123.0
 30
0.0
  0
POINT
  5
E9
330
A
100
AcDbEntity
  8
LAY-1
  6
Continuous
 62
     3
100
AcDbPoint
 10
224.0
 20
123.0
 30
0.0
  0
LWPOLYLINE
  5
EA
330
A
100
AcDbEntity
  8
LAY-1
  6
Continuous
 62
     3
100
AcDbPolyline
 90
        5
 70
   128
 43
0.0
 10
224.0
 20
123.0
 10
224.0
 20
151.25
 10
174.0
 20
151.25
 10
174.0
 20
123.0
 10
182.0
 20
123.0
  0
POINT
  5
F1
330
A
100
AcDbEntity
  8
LAY-1
  6
Continuous
 62
     3
100
AcDbPoint
 10
134.0
 20
143.0
 30
0.0
  0
LINE
  5
F2
330
A
100
AcDbEntity
  8
LAY-1
  6
Continuous
 62
     3
100
AcDbLine
 10
134.0
 20
143.0
 30
0.0
 11
134.0
 21
160.4999999999999
 31
0.0
  0
POINT
  5
F3
330
A
100
AcDbEntity
  8
LAY-1
  6
Continuous
 62
     3
100
AcDbPoint
 10
234.0
 20
171.75
 30
0.0
  0
POINT
  5
F4
330
A
100
AcDbEntity
  8
LAY-1
  6
Continuous
 62
     3
100
AcDbPoint
 10
234.0
 20
131.75
 30
0.0
  0
LINE
  5
F5
330
A
100
AcDbEntity
  8
LAY-1
  6
Continuous
 62
     3
100
AcDbLine
 10
234.0
 20
171.75
 30
0.0
 11
234.0
 21
131.75
 31
0.0
  0
LWPOLYLINE
  5
F6
330
A
100
AcDbEntity
  8
LAY-1
  6
Continuous
 62
     3
100
AcDbPolyline
 90
        4
 70
   128
 43
0.0
 10
234.0
 20
131.75
 10
244.0
 20
131.75
 10
244.0
 20
171.75
 10
234.0
 20
171.75
  0
POINT
  5
FC
330
A
100
AcDbEntity
  8
LAY-1
  6
Continuous
 62
     3
100
AcDbPoint
 10
174.0
 20
152.2499999999999
 30
0.0
  0
LWPOLYLINE
  5
FD
330
A
100
AcDbEntity
  8
LAY-1
  6
Continuous
 62
     3
100
AcDbPolyline
 90
        5
 70
   128
 43
0.0
 10
174.0
 20
152.2499999999999
 10
224.0
 20
152.2499999999999
 10
224.0
 20
180.4999999999999
 10
174.0
 20
180.4999999999999
 10
174.0
 20
152.2499999999999
  0
LINE
  5
104
330
A
100
AcDbEntity
  8
LAY-1
  6
Continuous
 62
     3
100
AcDbLine
 10
134.0
 20
160.4999999999999
 30
0.0
 11
174.0
 21
165.0
 31
0.0
  0
LINE
  5
105
330
A
100
AcDbEntity
  8
LAY-1
  6
Continuous
 62
     3
100
AcDbLine
 10
224.0
 20
170.625
 30
0.0
 11
234.0
 21
171.75
 31
0.0
  0
LINE
  5
106
330
A
100
AcDbEntity
  8
LAY-1
  6
Continuous
 62
     3
100
AcDbLine
 10
134.0
 20
143.0
 30
0.0
 11
174.0
 21
138.5
 31
0.0
  0
LINE
  5
107
330
A
100
AcDbEntity
  8
LAY-1
  6
Continuous
 62
     3
100
AcDbLine
 10
224.0
 20
132.875
 30
0.0
 11
234.0
 21
131.75
 31
0.0
  0
LWPOLYLINE
  5
108
330
A
100
AcDbEntity
  8
LAY-1
  6
Continuous
 62
     3
100
AcDbPolyline
 90
        4
 70
   128
 43
0.0
 10
397.8999999999998
 20
103.0
 10
399.5
 20
103.0
 10
399.5
 20
113.0
 10
234.5
 20
113.0
  0
LINE
  5
10E
330
A
100
AcDbEntity
  8
LAY-1
  6
DOT
 62
     3
100
AcDbLine
 10
174.0
 20
165.0
 30
0.0
 11
224.0
 21
170.625
 31
0.0
  0
LINE
  5
10F
330
A
100
AcDbEntity
  8
LAY-1
  6
DOT
 62
     3
100
AcDbLine
 10
174.0
 20
138.5
 30
0.0
 11
224.0
 21
132.875
 31
0.0
  0
LWPOLYLINE
  5
110
330
A
100
AcDbEntity
  8
LAY-1
  6
Continuous
 62
     3
100
AcDbPolyline
 90
        5
 70
   128
 43
0.0
 10
244.0
 20
121.75
 10
326.0
 20
121.75
 10
326.0
 20
181.75
 10
244.0
 20
181.75
 10
244.0
 20
121.75
  0
POINT
  5
117
330
A
100
AcDbEntity
  8
LAY-1
  6
Continuous
 62
     3
100
AcDbPoint
 10
244.0
 20
179.2499999999999
 30
0.0
  0
POINT
  5
118
330
A
100
AcDbEntity
  8
LAY-1
  6
Continuous
 62
     3
100
AcDbPoint
 10
244.0
 20
124.2499999999999
 30
0.0
  0
LINE
  5
119
330
A
100
AcDbEntity
  8
LAY-1
  6
Continuous
 62
     3
100
AcDbLine
 10
244.0
 20
179.2499999999999
 30
0.0
 11
240.0
 21
179.2499999999999
 31
0.0
  0
LINE
  5
11A
330
A
100
AcDbEntity
  8
LAY-1
  6
Continuous
 62
     3
100
AcDbLine
 10
244.0
 20
124.2499999999999
 30
0.0
 11
240.0
 21
124.2499999999999
 31
0.0
  0
POINT
  5
11B
330
A
100
AcDbEntity
  8
LAY-1
  6
Continuous
 62
     3
100
AcDbPoint
 10
234.0
 20
171.75
 30
0.0
  0
LWPOLYLINE
  5
11C
330
A
100
AcDbEntity
  8
LAY-1
  6
Continuous
 62
     3
100
AcDbPolyline
 90
        3
 70
   128
 43
0.0
 10
234.0
 20
171.75
 10
234.0
 20
174.75
 10
240.0
 20
179.2499999999999
  0
LWPOLYLINE
  5
121
330
A
100
AcDbEntity
  8
LAY-1
  6
Continuous
 62
     3
100
AcDbPolyline
 90
        3
 70
   128
 43
0.0
 10
234.0
 20
131.75
 10
234.0
 20
128.75
 10
240.0
 20
124.2499999999999
  0
LINE
  5
126
330
A
100
AcDbEntity
  8
LAY-1
  6
Continuous
 62
     3
100
AcDbLine
 10
270.5
 20
79.0
 30
0.0
 11
406.0
 21
79.0
 31
0.0
  0
LWPOLYLINE
  5
127
330
A
100
AcDbEntity
  8
LAY-1
  6
Continuous
 62
     3
100
AcDbPolyline
 90
        5
 70
   128
 43
0.0
 10
34.0
 20
143.0
 10
114.0
 20
143.0
 10
114.0
 20
160.4999999999999
 10
34.0
 20
160.4999999999999
 10
34.0
 20
143.0
  0
POINT
  5
12E
330
A
100
AcDbEntity
  8
LAY-1
  6
Continuous
 62
     3
100
AcDbPoint
 10
74.0
 20
151.75
 30
0.0
  0
CIRCLE
  5
12F
330
A
100
AcDbEntity
  8
LAY-1
  6
Continuous
 62
     3
100
AcDbCircle
 10
74.0
 20
151.75
 30
0.0
 40
30.0
  0
POINT
  5
130
330
A
100
AcDbEntity
  8
LAY-1
  6
Continuous
 62
     3
100
AcDbPoint
 10
74.0
 20
152.2499999999999
 30
0.0
  0
POINT
  5
131
330
A
100
AcDbEntity
  8
LAY-1
  6
Continuous
 62
     3
100
AcDbPoint
 10
74.0
 20
151.25
 30
0.0
  0
LWPOLYLINE
  5
132
330
A
100
AcDbEntity
  8
LAY-1
  6
Continuous
 62
     3
100
AcDbPolyline
 90
        5
 70
   128
 43
0.0
 10
39.0
 20
152.2499999999999
 10
109.0
 20
152.2499999999999
 10
109.0
 20
180.4999999999999
 10
39.0
 20
180.4999999999999
 10
39.0
 20
152.2499999999999
  0
LWPOLYLINE
  5
139
330
A
100
AcDbEntity
  8
LAY-1
  6
Continuous
 62
     3
100
AcDbPolyline
 90
        5
 70
   128
 43
0.0
 10
39.0
 20
123.0
 10
109.0
 20
123.0
 10
109.0
 20
151.25
 10
39.0
 20
151.25
 10
39.0
 20
123.0
  0
POINT
  5
140
330
A
100
AcDbEntity
  8
LAY-1
  6
Continuous
 62
     3
100
AcDbPoint
 10
108.0
 20
123.0
 30
0.0
  0
LWPOLYLINE
  5
141
330
A
100
AcDbEntity
  8
LAY-1
  6
Continuous
 62
     3
100
AcDbPolyline
 90
        8
 70
   128
 43
0.0
 10
108.0
 20
123.0
 10
108.0
 20
113.0
 10
98.0
 20
113.0
 10
98.0
 20
113.5
 10
50.0
 20
113.5
 10
50.0
 20
113.0
 10
40.0
 20
113.0
 10
40.0
 20
123.0
  0
LWPOLYLINE
  5
14B
330
A
100
AcDbEntity
  8
LAY-1
  6
Continuous
 62
     3
100
AcDbPolyline
 90
        4
 70
   128
 43
0.0
 10
40.0
 20
113.0
 10
40.0
 20
103.0
 10
108.0
 20
103.0
 10
108.0
 20
113.0
  0
LINE
  5
151
330
A
100
AcDbEntity
  8
LAY-1
  6
Continuous
 62
     3
100
AcDbLine
 10
50.0
 20
113.0
 30
0.0
 11
98.0
 21
113.0
 31
0.0
  0
POINT
  5
152
330
A
100
AcDbEntity
  8
LAY-1
  6
Continuous
 62
     3
100
AcDbPoint
 10
45.0
 20
108.0
 30
0.0
  0
POINT
  5
153
330
A
100
AcDbEntity
  8
LAY-1
  6
Continuous
 62
     3
100
AcDbPoint
 10
64.0
 20
108.0
 30
0.0
  0
POINT
  5
154
330
A
100
AcDbEntity
  8
LAY-1
  6
Continuous
 62
     3
100
AcDbPoint
 10
84.0
 20
108.0
 30
0.0
  0
POINT
  5
155
330
A
100
AcDbEntity
  8
LAY-1
  6
Continuous
 62
     3
100
AcDbPoint
 10
103.0
 20
108.0
 30
0.0
  0
CIRCLE
  5
156
330
A
100
AcDbEntity
  8
LAY-1
  6
Continuous
 62
     3
100
AcDbCircle
 10
45.0
 20
108.0
 30
0.0
 40
3.0
  0
CIRCLE
  5
157
330
A
100
AcDbEntity
  8
LAY-1
  6
Continuous
 62
     3
100
AcDbCircle
 10
103.0
 20
108.0
 30
0.0
 40
3.0
  0
CIRCLE
  5
158
330
A
100
AcDbEntity
  8
LAY-1
  6
Continuous
 62
     3
100
AcDbCircle
 10
64.0
 20
108.0
 30
0.0
 40
4.0
  0
CIRCLE
  5
159
330
A
100
AcDbEntity
  8
LAY-1
  6
Continuous
 62
     3
100
AcDbCircle
 10
84.0
 20
108.0
 30
0.0
 40
4.0
  0
POINT
  5
15A
330
A
100
AcDbEntity
  8
LAY-1
  6
Continuous
 62
     3
100
AcDbPoint
 10
224.0
 20
126.5
 30
0.0
  0
POINT
  5
15B
330
A
100
AcDbEntity
  8
LAY-1
  6
Continuous
 62
     3
100
AcDbPoint
 10
174.0
 20
129.4999999999999
 30
0.0
  0
LWPOLYLINE
  5
15C
330
A
100
AcDbEntity
  8
LAY-1
  6
DOT
 62
     1
100
AcDbPolyline
 90
        4
 70
   128
 43
0.0
 10
174.0
 20
129.4999999999999
 10
204.0
 20
129.4999999999999
 10
204.0
 20
126.5
 10
224.0
 20
126.5
  0
LINE
  5
162
330
A
100
AcDbEntity
  8
LAY-1
  6
Continuous
 62
     3
100
AcDbLine
 10
134.0
 20
143.0
 30
0.0
 11
125.7
 21
143.0
 31
0.0
  0
LINE
  5
163
330
A
100
AcDbEntity
  8
LAY-1
  6
Continuous
 62
     3
100
AcDbLine
 10
134.0
 20
160.4999999999999
 30
0.0
 11
128.4999999999999
 21
160.4999999999999
 31
0.0
  0
LWPOLYLINE
  5
164
330
A
100
AcDbEntity
  8
LAY-1
  6
Continuous
 62
     3
100
AcDbPolyline
 90
        3
 70
   128
 43
0.0
 10
134.0
 20
143.0
 10
134.0
 20
140.0
 10
124.7999999999999
 20
140.0
  0
LWPOLYLINE
  5
169
330
A
100
AcDbEntity
  8
LAY-1
  6
Continuous
 62
     3
100
AcDbPolyline
 90
       34
 70
   128
 43
0.0
 10
124.7999999999999
 20
140.0
 10
124.8125889999997
 20
140.0392019999999
 10
124.847999
 20
140.151126
 10
124.902694
 20
140.3272429999999
 10
124.9731399999999
 20
140.559029
 10
125.0558
 20
140.837957
 10
125.147139
 20
141.1555009999998
 10
125.243623
 20
141.503135
 10
125.3417149999999
 20
141.872331
 10
125.43788
 20
142.2545649999999
 10
125.528583
 20
142.641309
 10
125.6102889999999
 20
143.0240379999998
 10
125.798803
 20
144.222082
 10
125.872643
 20
145.3025199999999
 10
125.8574659999997
 20
146.288175
 10
125.778928
 20
147.2018689999998
 10
125.662688
 20
148.066427
 10
125.534402
 20
148.904672
 10
125.419727
 20
149.739426
 10
125.3443209999999
 20
150.593513
 10
125.333841
 20
151.489755
 10
125.413945
 20
152.4509759999999
 10
125.6102889999999
 20
153.5
 10
125.834727
 20
154.3205289999999
 10
126.1166919999999
 20
155.1752079999999
 10
126.43956
 20
156.040375
 10
126.786706
 20
156.89237
 10
127.1415039999999
 20
157.707531
 10
127.487329
 20
158.462199
 10
127.807558
 20
159.132712
 10
128.0855639999997
 20
159.695409
 10
128.3047229999999
 20
160.1266299999998
 10
128.44841
 20
160.402714
 10
128.4999999999999
 20
160.4999999999999
  0
LWPOLYLINE
  5
18D
330
A
100
AcDbEntity
  8
LAY-1
  6
Continuous
 62
     3
100
AcDbPolyline
 90
       67
 70
   128
 43
0.0
 10
134.0
 20
140.0
 10
134.1540689999999
 20
139.997736
 10
134.593986
 20
139.9908579999999
 10
135.2863189999997
 20
139.979237
 10
136.197635
 20
139.9627429999999
 10
137.294501
 20
139.941247
 10
138.543484
 20
139.9146209999997
 10
139.911151
 20
139.8827339999999
 10
141.364069
 20
139.845458
 10
142.868805
 20
139.8026629999999
 10
144.391926
 20
139.7542199999999
 10
145.9
 20
139.7
 10
149.6164499999999
 20
139.531986
 10
153.041028
 20
139.327851
 10
156.209927
 20
139.091442
 10
159.1593419999998
 20
138.826607
 10
161.925467
 20
138.537192
 10
164.544496
 20
138.2270459999999
 10
167.052623
 20
137.9000159999999
 10
169.486043
 20
137.5599489999999
 10
171.8809489999999
 20
137.210692
 10
174.273537
 20
136.8560939999997
 10
176.6999999999999
 20
136.4999999999999
 10
180.632978
 20
135.9428169999999
 10
184.715363
 20
135.3764689999999
 10
188.9242449999999
 20
134.786005
 10
193.2367129999999
 20
134.1564729999997
 10
197.629858
 20
133.472924
 10
202.080771
 20
132.7204049999999
 10
206.566541
 20
131.8839669999997
 10
211.0642589999999
 20
130.948659
 10
215.551014
 20
129.8995279999999
 10
220.0038979999999
 20
128.721626
 10
224.4
 20
127.4
 10
227.2008
 20
126.4660209999999
 10
229.9711559999999
 20
125.4817939999999
 10
232.713891
 20
124.463301
 10
235.4318259999998
 20
123.4265289999999
 10
238.127783
 20
122.387462
 10
240.8045839999999
 20
121.362084
 10
243.465049
 20
120.36638
 10
246.112002
 20
119.4163349999999
 10
248.748264
 20
118.527934
 10
251.376656
 20
117.71716
 10
254.0
 20
117.0
 10
256.872991
 20
116.335612
 10
259.7562379999999
 20
115.793093
 10
262.662668
 20
115.3627799999999
 10
265.605209
 20
115.035008
 10
268.596787
 20
114.8001139999999
 10
271.650332
 20
114.648433
 10
274.778769
 20
114.570302
 10
277.995027
 20
114.556058
 10
281.3120339999999
 20
114.596035
 10
284.7427149999997
 20
114.6805699999999
 10
288.3
 20
114.7999999999999
 10
298.6910489999999
 20
115.253885
 10
309.774177
 20
115.856534
 10
321.1950449999998
 20
116.5674929999999
 10
332.5993149999998
 20
117.3463099999999
 10
343.632648
 20
118.152531
 10
353.9407049999998
 20
118.945704
 10
363.169148
 20
119.685377
 10
370.963638
 20
120.3310949999997
 10
376.969835
 20
120.842407
 10
380.8334019999998
 20
121.17886
 10
382.2
 20
121.3
  0
POINT
  5
1D2
330
A
100
AcDbEntity
  8
LAY-1
  6
Continuous
 62
     3
100
AcDbPoint
 10
74.0
 20
101.5
 30
0.0
  0
POINT
  5
1D3
330
A
100
AcDbEntity
  8
LAY-1
  6
Continuous
 62
     3
100
AcDbPoint
 10
101.5
 20
103.0
 30
0.0
  0
POINT
  5
1D4
330
A
100
AcDbEntity
  8
LAY-1
  6
Continuous
 62
     3
100
AcDbPoint
 10
94.0
 20
98.0
 30
0.0
  0
POINT
  5
1D5
330
A
100
AcDbEntity
  8
LAY-1
  6
Continuous
 62
     3
100
AcDbPoint
 10
54.0
 20
98.0
 30
0.0
  0
CIRCLE
  5
1D6
330
A
100
AcDbEntity
  8
LAY-1
  6
Continuous
 62
     1
100
AcDbCircle
 10
54.0
 20
98.0
 30
0.0
 40
4.0
  0
CIRCLE
  5
1D7
330
A
100
AcDbEntity
  8
LAY-1
  6
Continuous
 62
     1
100
AcDbCircle
 10
94.0
 20
98.0
 30
0.0
 40
4.0
  0
POINT
  5
1D8
330
A
100
AcDbEntity
  8
LAY-1
  6
Continuous
 62
     1
100
AcDbPoint
 10
124.0
 20
99.25
 30
0.0
  0
POINT
  5
1D9
330
A
100
AcDbEntity
  8
LAY-1
  6
Continuous
 62
     1
100
AcDbPoint
 10
24.0
 20
99.25
 30
0.0
  0
ARC
  5
1DA
330
A
100
AcDbEntity
  8
LAY-1
  6
Continuous
 62
     3
100
AcDbCircle
 10
74.0
 20
-457.0073599999998
 30
0.0
 40
558.4999999999999
100
AcDbArc
 50
92.319709
 51
95.13631100000001
  0
ARC
  5
1DB
330
A
100
AcDbEntity
  8
LAY-1
  6
Continuous
 62
     3
100
AcDbCircle
 10
74.0
 20
-457.0073599999998
 30
0.0
 40
558.4999999999999
100
AcDbArc
 50
84.863689
 51
87.68029099999997
  0
ARC
  5
1DC
330
A
100
AcDbEntity
  8
LAY-1
  6
Continuous
 62
     3
100
AcDbCircle
 10
74.0
 20
-457.0073599999998
 30
0.0
 40
558.4999999999999
100
AcDbArc
 50
88.19212399999996
 51
91.807876
  0
LINE
  5
1DD
330
A
100
AcDbEntity
  8
LAY-1
  6
Continuous
 62
     3
100
AcDbLine
 10
46.5
 20
100.815193
 30
0.0
 11
46.5
 21
103.0
 31
0.0
  0
LINE
  5
1DE
330
A
100
AcDbEntity
  8
LAY-1
  6
Continuous
 62
     3
100
AcDbLine
 10
101.5
 20
103.0
 30
0.0
 11
101.5
 21
100.815193
 31
0.0
  0
LINE
  5
1DF
330
A
100
AcDbEntity
  8
LAY-1
  6
DOT
 62
     3
100
AcDbLine
 10
46.5
 20
100.815193
 30
0.0
 11
46.5
 21
93.0
 31
0.0
  0
LINE
  5
1E0
330
A
100
AcDbEntity
  8
LAY-1
  6
DOT
 62
     3
100
AcDbLine
 10
101.5
 20
100.815193
 30
0.0
 11
101.5
 21
93.0
 31
0.0
  0
LINE
  5
1E1
330
A
100
AcDbEntity
  8
LAY-1
  6
DOT
 62
     3
100
AcDbLine
 10
46.5
 20
93.0
 30
0.0
 11
101.5
 21
93.0
 31
0.0
  0
LWPOLYLINE
  5
1E2
330
A
100
AcDbEntity
  8
LAY-1
  6
Continuous
 62
     3
100
AcDbPolyline
 90
       56
 70
   128
 43
0.0
 10
24.0
 20
99.25
 10
24.023096
 20
99.00470300000002
 10
24.096367
 20
98.313211
 10
24.225793
 20
97.242125
 10
24.417349
 20
95.85804399999998
 10
24.67701299999999
 20
94.227567
 10
25.01076199999999
 20
92.41729499999999
 10
25.424575
 20
90.49382800000001
 10
25.924428
 20
88.523765
 10
26.516298
 20
86.573706
 10
27.206163
 20
84.710251
 10
28.0
 20
83.0
 10
29.67259799999999
 20
80.46854899999997
 10
31.649126
 20
78.538562
 10
33.886464
 20
77.11771
 10
36.341493
 20
76.11366099999997
 10
38.97109299999997
 20
75.434084
 10
41.73214399999999
 20
74.986648
 10
44.581528
 20
74.67902200000001
 10
47.476125
 20
74.41887499999999
 10
50.372816
 20
74.113877
 10
53.228481
 20
73.671695
 10
56.0
 20
73.0
 10
58.873554
 20
71.936786
 10
61.61840999999999
 20
70.570024
 10
64.255595
 20
68.97480899999999
 10
66.806134
 20
67.22623399999999
 10
69.291053
 20
65.399393
 10
71.73137800000002
 20
63.56937900000001
 10
74.148135
 20
61.811287
 10
76.56234999999998
 20
60.20020899999999
 10
78.995049
 20
58.811239
 10
81.46725699999997
 20
57.71947199999999
 10
84.0
 20
57.0
 10
86.05543799999997
 20
56.73684399999999
 10
88.15088199999998
 20
56.74655999999998
 10
90.27536000000001
 20
57.02239999999999
 10
92.41790299999999
 20
57.55761899999999
 10
94.56754000000001
 20
58.345468
 10
96.713301
 20
59.379202
 10
98.84421500000001
 20
60.652074
 10
100.949313
 20
62.157336
 10
103.0176229999999
 20
63.888243
 10
105.038176
 20
65.83804599999999
 10
107.0
 20
68.0
 10
109.6202139999999
 20
71.34070499999999
 10
112.084912
 20
74.956363
 10
114.374282
 20
78.722004
 10
116.468512
 20
82.51265699999997
 10
118.3477909999999
 20
86.203351
 10
119.9923049999999
 20
89.669115
 10
121.382243
 20
92.784977
 10
122.497794
 20
95.42596800000001
 10
123.3191449999999
 20
97.46711600000001
 10
123.826484
 20
98.783451
 10
124.0
 20
99.25
  0
TEXT
  5
21C
330
A
100
AcDbEntity
  8
LAY-1
  6
Continuous
 62
     1
100
AcDbText
 10
317.052852458966
 20
204.0410622873459
 30
0.0
 40
3.0
  1
PMT Hamamatsu (H6614-01 R5924)
 41
0.7531097280772169
  7
EXCADSTD
 72
     5
 11
380.6153135086832
 21
204.0410622873459
 31
0.0
100
AcDbText
  0
LEADER
  5
21D
330
A
100
AcDbEntity
  8
LAY-1
  6
Continuous
 62
     1
100
AcDbLeader
  3
STANDARD
 76
     3
 10
294.0
 20
171.0
 30
0.0
 10
311.990381
 20
202.1602539999999
 30
0.0
 10
384.7606915027672
 20
202.1602539999999
 30
0.0
1001
ACAD
1000
DSTYLE
1002
{
1070
    41
1040
3.0
1070
     5
1000
_EX_NORM
1070
     6
1000
_EX_NORM
1070
     7
1000
_EX_NORM
1002
}
  0
TEXT
  5
21E
330
A
100
AcDbEntity
  8
LAY-1
  6
Continuous
 62
     1
100
AcDbText
 10
271.1766959999999
 20
225.7520173613332
 30
0.0
 40
3.0
  1
light guide support
 41
0.7441863715886884
  7
EXCADSTD
 72
     5
 11
311.0650855171536
 21
225.7520173613332
 31
0.0
100
AcDbText
  0
LEADER
  5
21F
330
A
100
AcDbEntity
  8
LAY-1
  6
Continuous
 62
     1
100
AcDbLeader
  3
STANDARD
 76
     3
 10
239.9
 20
175.4
 30
0.0
 10
267.353392
 20
222.95067
 30
0.0
 10
317.052852458966
 20
222.95067
 30
0.0
1001
ACAD
1000
DSTYLE
1002
{
1070
    41
1040
3.0
1070
     5
1000
_EX_NORM
1070
     6
1000
_EX_NORM
1070
     7
1000
_EX_NORM
1002
}
  0
TEXT
  5
220
330
A
100
AcDbEntity
  8
LAY-1
  6
Continuous
 62
     1
100
AcDbText
 10
97.34782678526041
 20
201.139138287346
 30
0.0
 40
3.0
  1
light guide
 41
0.8076589030759606
  7
EXCADSTD
 72
     5
 11
122.223721
 21
201.139138287346
 31
0.0
100
AcDbText
  0
LEADER
  5
221
330
A
100
AcDbEntity
  8
LAY-1
  6
Continuous
 62
     1
100
AcDbLeader
  3
STANDARD
 76
     3
 10
154.0
 20
155.0
 30
0.0
 10
128.447441
 20
199.2583299999999
 30
0.0
 10
94.58424107431186
 20
199.2583299999999
 30
0.0
1001
ACAD
1000
DSTYLE
1002
{
1070
    41
1040
3.0
1070
     5
1000
_EX_NORM
1070
     6
1000
_EX_NORM
1070
     7
1000
_EX_NORM
1002
}
  0
TEXT
  5
222
330
A
100
AcDbEntity
  8
LAY-1
  6
Continuous
 62
     1
100
AcDbText
 10
48.06388981020154
 20
191.7683032873459
 30
0.0
 40
3.0
  1
scintillator BC-404 17.5t*80*1000
 41
0.6927424078430791
  7
EXCADSTD
 72
     5
 11
114.2900639999999
 21
191.7683032873459
 31
0.0
100
AcDbText
  0
LEADER
  5
223
330
A
100
AcDbEntity
  8
LAY-1
  6
Continuous
 62
     1
100
AcDbLeader
  3
STANDARD
 76
     3
 10
129.0
 20
151.0
 30
0.0
 10
118.580127
 20
189.8874949999999
 30
0.0
 10
42.80990379760988
 20
189.8874949999999
 30
0.0
1001
ACAD
1000
DSTYLE
1002
{
1070
    41
1040
3.0
1070
     5
1000
_EX_NORM
1070
     6
1000
_EX_NORM
1070
     7
1000
_EX_NORM
1002
}
  0
TEXT
  5
224
330
A
100
AcDbEntity
  8
LAY-1
  6
Continuous
 62
     1
100
AcDbText
 10
152.734825
 20
68.3066502873461
 30
0.0
 40
3.0
  1
scintillator BC-404 2.5t
 41
0.7167440623497159
  7
EXCADSTD
 72
     5
 11
201.9034676771905
 21
68.3066502873461
 31
0.0
100
AcDbText
  0
LEADER
  5
225
330
A
100
AcDbEntity
  8
LAY-1
  6
Continuous
 62
     1
100
AcDbLeader
  3
STANDARD
 76
     3
 10
128.4999999999999
 20
141.6999999999999
 30
0.0
 10
148.6696499999998
 20
66.425842
 30
0.0
 10
204.667053388139
 20
66.425842
 30
0.0
1001
ACAD
1000
DSTYLE
1002
{
1070
    41
1040
3.0
1070
     5
1000
_EX_NORM
1070
     6
1000
_EX_NORM
1070
     7
1000
_EX_NORM
1002
}
  0
LEADER
  5
226
330
A
100
AcDbEntity
  8
LAY-1
  6
Continuous
 62
     1
100
AcDbLeader
  3
STANDARD
 76
     3
 10
199.6004809201908
 20
116.5
 30
0.0
 10
192.6915172151582
 20
86.110675
 30
0.0
 10
148.0135560434546
 20
86.110675
 30
0.0
1001
ACAD
1000
DSTYLE
1002
{
1070
    41
1040
3.0
1070
     5
1000
_EX_NORM
1070
     6
1000
_EX_NORM
1070
     7
1000
_EX_NORM
1002
}
  0
TEXT
  5
227
330
A
100
AcDbEntity
  8
LAY-1
  6
Continuous
 62
     1
100
AcDbText
 10
143.8681791940485
 20
89.37229157469221
 30
0.0
 40
3.0
  1
spacer (when R is large)
 41
0.7417598367563898
  7
EXCADSTD
 72
     5
 11
192.2309205505651
 21
89.37229157469221
 31
0.0
100
AcDbText
  0
TEXT
  5
228
330
A
100
AcDbEntity
  8
LAY-1
  6
Continuous
 62
     1
100
AcDbText
 10
217.5637840349843
 20
69.82493250070508
 30
0.0
 40
3.0
  1
light guide holder (down)
 41
0.670322080818271
  7
EXCADSTD
 72
     5
 11
264.0841364437723
 21
69.82493250070508
 31
0.0
100
AcDbText
  0
LEADER
  5
229
330
A
100
AcDbEntity
  8
LAY-1
  6
Continuous
 62
     1
100
AcDbLeader
  3
STANDARD
 76
     3
 10
196.0
 20
142.0
 30
0.0
 10
215.966541
 20
67.48385500000001
 30
0.0
 10
262.1
 20
67.48385500000001
 30
0.0
1001
ACAD
1000
DSTYLE
1002
{
1070
    41
1040
3.0
1070
     5
1000
_EX_NORM
1070
     6
1000
_EX_NORM
1070
     7
1000
_EX_NORM
1002
}
  0
TEXT
  5
22A
330
A
100
AcDbEntity
  8
LAY-1
  6
Continuous
 62
     1
100
AcDbText
 10
123.6018858882214
 20
220.4829015007049
 30
0.0
 40
3.0
  1
light guide holder (up)
 41
0.7643145128040772
  7
EXCADSTD
 72
     5
 11
172.059426
 21
220.4829015007049
 31
0.0
100
AcDbText
  0
LEADER
  5
22B
330
A
100
AcDbEntity
  8
LAY-1
  6
Continuous
 62
     1
100
AcDbLeader
  3
STANDARD
 76
     3
 10
198.5
 20
174.6999999999999
 30
0.0
 10
173.4188509999999
 20
218.141824
 30
0.0
 10
121.2988991312222
 20
218.141824
 30
0.0
1001
ACAD
1000
DSTYLE
1002
{
1070
    41
1040
3.0
1070
     5
1000
_EX_NORM
1070
     6
1000
_EX_NORM
1070
     7
1000
_EX_NORM
1002
}
  0
LEADER
  5
22C
330
A
100
AcDbEntity
  8
LAY-1
  6
Continuous
 62
     1
100
AcDbLeader
  3
STANDARD
 76
     3
 10
278.0
 20
107.0
 30
0.0
 10
263.8121779999999
 20
54.050327
 30
0.0
 10
225.8545400231521
 20
54.050327
 30
0.0
1001
ACAD
1000
DSTYLE
1002
{
1070
    41
1040
3.0
1070
     5
1000
_EX_NORM
1070
     6
1000
_EX_NORM
1070
     7
1000
_EX_NORM
1002
}
  0
TEXT
  5
22D
330
A
100
AcDbEntity
  8
LAY-1
  6
Continuous
 62
     1
100
AcDbText
 10
225.8545400231521
 20
54.550327
 30
0.0
 40
3.0
  1
base (fix side)
 41
0.8962366090693066
  7
EXCADSTD
 72
     5
 11
262.2417463513659
 21
54.550327
 31
0.0
100
AcDbText
  0
TEXT
  5
22E
330
A
100
AcDbEntity
  8
LAY-1
  6
Continuous
 62
     1
100
AcDbText
 10
334.0949622445732
 20
54.44744100000001
 30
0.0
 40
3.0
  1
base adapter
 41
0.8721373557154128
  7
EXCADSTD
 72
     5
 11
363.5732048677541
 21
54.44744100000001
 31
0.0
100
AcDbText
  0
LEADER
  5
22F
330
A
100
AcDbEntity
  8
LAY-1
  6
Continuous
 62
     1
100
AcDbLeader
  3
STANDARD
 76
     3
 10
377.0
 20
98.0
 30
0.0
 10
365.1961519999998
 20
53.947441
 30
0.0
 10
333.0
 20
53.947441
 30
0.0
1001
ACAD
1000
DSTYLE
1002
{
1070
    41
1040
3.0
1070
     5
1000
_EX_NORM
1070
     6
1000
_EX_NORM
1070
     7
1000
_EX_NORM
1002
}
  0
TEXT
  5
230
330
A
100
AcDbEntity
  8
LAY-1
  6
Continuous
 62
     1
100
AcDbText
 10
280.2050494661593
 20
74.12436272266645
 30
0.0
 40
3.0
  1
base fix
 41
1.373341304240916
  7
EXCADSTD
 72
     5
 11
310.1438898986113
 21
74.12436272266645
 31
0.0
100
AcDbText
  0
LEADER
  5
231
330
A
100
AcDbEntity
  8
LAY-1
  6
Continuous
 62
     1
100
AcDbLeader
  3
STANDARD
 76
     3
 10
325.3
 20
91.40269472266643
 30
0.0
 10
315.035675
 20
73.62436272266645
 30
0.0
 10
270.3
 20
73.62436272266645
 30
0.0
1001
ACAD
1000
DSTYLE
1002
{
1070
    41
1040
3.0
1070
     5
1000
_EX_NORM
1070
     6
1000
_EX_NORM
1070
     7
1000
_EX_NORM
1002
}
  0
TEXT
  5
232
330
A
100
AcDbEntity
  8
LAY-1
  6
Continuous
 62
     1
100
AcDbText
 10
298.862277
 20
60.877534
 30
0.0
 40
3.0
  1
belt
 41
1.363636363636363
  7
EXCADSTD
 72
     5
 11
313.862277
 21
60.877534
 31
0.0
100
AcDbText
  0
LEADER
  5
233
330
A
100
AcDbEntity
  8
LAY-1
  6
Continuous
 62
     1
100
AcDbLeader
  3
STANDARD
 76
     3
 10
332.2
 20
80.6
 30
0.0
 10
320.524554
 20
60.37753399999999
 30
0.0
 10
281.5868428939725
 20
60.37753399999999
 30
0.0
1001
ACAD
1000
DSTYLE
1002
{
1070
    41
1040
3.0
1070
     5
1000
_EX_NORM
1070
     6
1000
_EX_NORM
1070
     7
1000
_EX_NORM
1002
}
  0
TEXT
  5
234
330
A
100
AcDbEntity
  8
LAY-1
  6
Continuous
 62
     1
100
AcDbText
 10
288.4958054543271
 20
50.065579
 30
0.0
 40
3.0
  1
silicone gum
 41
0.8634320575642806
  7
EXCADSTD
 72
     5
 11
317.6798089999998
 21
50.065579
 31
0.0
100
AcDbText
  0
LEADER
  5
235
330
A
100
AcDbEntity
  8
LAY-1
  6
Continuous
 62
     1
100
AcDbLeader
  3
STANDARD
 76
     3
 10
338.3
 20
79.59999999999998
 30
0.0
 10
320.9596189999998
 20
49.56557899999999
 30
0.0
 10
284.3504274602431
 20
49.56557899999999
 30
0.0
1001
ACAD
1000
DSTYLE
1002
{
1070
    41
1040
3.0
1070
     5
1000
_EX_NORM
1070
     6
1000
_EX_NORM
1070
     7
1000
_EX_NORM
1002
}
  0
TEXT
  5
236
330
A
100
AcDbEntity
  8
LAY-1
  6
Continuous
 62
     1
100
AcDbText
 10
369.6565509999998
 20
145.0268332873461
 30
0.0
 40
3.0
  1
WLS fiber
 41
1.166212369683655
  7
EXCADSTD
 72
     5
 11
398.5786177681545
 21
145.0268332873461
 31
0.0
100
AcDbText
  0
LEADER
  5
237
330
A
100
AcDbEntity
  8
LAY-1
  6
Continuous
 62
     1
100
AcDbLeader
  3
STANDARD
 76
     3
 10
353.208513
 20
118.8893639999997
 30
0.0
 10
367.213103
 20
143.146025
 30
0.0
 10
402.7239957622387
 20
143.146025
 30
0.0
1001
ACAD
1000
DSTYLE
1002
{
1070
    41
1040
3.0
1070
     5
1000
_EX_NORM
1070
     6
1000
_EX_NORM
1070
     7
1000
_EX_NORM
1002
}
  0
TEXT
  5
238
330
A
100
AcDbEntity
  8
LAY-1
  6
Continuous
 62
     1
100
AcDbText
 10
378.3999999999998
 20
139.0
 30
0.0
 40
3.0
  1
φ1
 41
1.078352941176501
  7
EXCADSTD
 72
     5
 11
383.8996
 21
139.0
 31
0.0
100
AcDbText
  0
TEXT
  5
23A
330
A
100
AcDbEntity
  8
LAY-1
  6
Continuous
 62
     1
100
AcDbText
 10
279.4999999999999
 20
69.80269472266646
 30
0.0
 40
3.0
  1
105-219-002
 41
0.9144405504836276
  7
EXCADSTD
 72
     5
 11
308.762097615476
 21
69.80269472266646
 31
0.0
100
AcDbText
  0
TEXT
  5
23B
330
A
100
AcDbEntity
  8
LAY-1
  6
Continuous
 62
     1
100
AcDbText
 10
288.0352076450559
 20
56.4
 30
0.0
 40
3.0
  1
105-219-001
 41
0.9004695985696484
  7
EXCADSTD
 72
     5
 11
316.3999999999997
 21
56.4
 31
0.0
100
AcDbText
  0
TEXT
  5
23C
330
A
100
AcDbEntity
  8
LAY-1
  6
Continuous
 62
     1
100
AcDbText
 10
222.1697598383391
 20
63.39999999999999
 30
0.0
 40
3.0
  1
105-219-013
 41
1.06513182582926
  7
EXCADSTD
 72
     5
 11
256.2539782648755
 21
63.39999999999999
 31
0.0
100
AcDbText
  0
TEXT
  5
23D
330
A
100
AcDbEntity
  8
LAY-1
  6
Continuous
 62
     1
100
AcDbText
 10
138.9
 20
214.1999999999999
 30
0.0
 40
3.0
  1
105-219-014
 41
0.75
  7
EXCADSTD
 72
     5
 11
162.9
 21
214.1999999999999
 31
0.0
100
AcDbText
  0
TEXT
  5
23E
330
A
100
AcDbEntity
  8
LAY-1
  6
Continuous
 62
     1
100
AcDbText
 10
335.0161567184375
 20
49.9
 30
0.0
 40
3.0
  1
105-219-003
 41
0.9068014004346828
  7
EXCADSTD
 72
     5
 11
364.0338015323473
 21
49.9
 31
0.0
100
AcDbText
  0
TEXT
  5
23F
330
A
100
AcDbEntity
  8
LAY-1
  6
Continuous
 62
     1
100
AcDbText
 10
277.0
 20
219.0
 30
0.0
 40
3.0
  1
105-219-015
 41
0.9349908600959279
  7
EXCADSTD
 72
     5
 11
306.9197075230697
 21
219.0
 31
0.0
100
AcDbText
  0
LINE
  5
240
330
A
100
AcDbEntity
  8
LAY-1
  6
DOT
 62
     3
100
AcDbLine
 10
219.4999999999999
 20
123.0
 30
0.0
 11
219.4999999999999
 21
180.4999999999999
 31
0.0
  0
LINE
  5
241
330
A
100
AcDbEntity
  8
LAY-1
  6
DOT
 62
     3
100
AcDbLine
 10
214.5
 20
180.4999999999999
 30
0.0
 11
214.5
 21
123.0
 31
0.0
  0
LWPOLYLINE
  5
242
330
A
100
AcDbEntity
  8
LAY-1
  6
Continuous
 62
     3
100
AcDbPolyline
 90
        4
 70
   128
 43
0.0
 10
219.4999999999999
 20
180.4999999999999
 10
219.4999999999999
 20
195.5
 10
214.5
 20
195.5
 10
214.5
 20
180.4999999999999
  0
LINE
  5
24B
330
A
100
AcDbEntity
  8
LAY-1
  6
Continuous
 62
     3
100
AcDbLine
 10
199.5
 20
113.0
 30
0.0
 11
187.0
 21
113.0
 31
0.0
  0
LINE
  5
24C
330
A
100
AcDbEntity
  8
LAY-1
  6
Continuous
 62
     3
100
AcDbLine
 10
187.0
 20
103.0
 30
0.0
 11
326.1
 21
103.0
 31
0.0
  0
LINE
  5
24D
330
A
100
AcDbEntity
  8
LAY-1
  6
Continuous
 62
     3
100
AcDbLine
 10
234.5
 20
113.0
 30
0.0
 11
199.5
 21
113.0
 31
0.0
  0
LINE
  5
24E
330
A
100
AcDbEntity
  8
LAY-1
  6
Continuous
 62
     3
100
AcDbLine
 10
182.0
 20
123.0
 30
0.0
 11
182.0
 21
113.0
 31
0.0
  0
POINT
  5
24F
330
A
100
AcDbEntity
  8
LAY-1
  6
Continuous
 62
     3
100
AcDbPoint
 10
222.0
 20
113.0
 30
0.0
  0
LINE
  5
250
330
A
100
AcDbEntity
  8
LAY-1
  6
Continuous
 62
     3
100
AcDbLine
 10
222.0
 20
113.0
 30
0.0
 11
222.0
 21
123.0
 31
0.0
  0
LINE
  5
251
330
A
100
AcDbEntity
  8
LAY-1
  6
Continuous
 62
     3
100
AcDbLine
 10
182.0
 20
123.0
 30
0.0
 11
224.0
 21
123.0
 31
0.0
  0
TEXT
  5
252
330
A
100
AcDbEntity
  8
LAY-1
  6
Continuous
 62
     1
100
AcDbText
 10
150.3165439451321
 20
82.4
 30
0.0
 40
3.0
  1
105-219-009(011)
 41
0.8010391954958041
  7
EXCADSTD
 72
     5
 11
187.1643469379391
 21
82.4
 31
0.0
100
AcDbText
  0
TEXT
  5
253
330
A
100
AcDbEntity
  8
LAY-1
  6
Continuous
 62
     1
100
AcDbText
 10
229.078722398694
 20
50.0
 30
0.0
 40
3.0
  1
105-219-005
 41
0.9787697723621036
  7
EXCADSTD
 72
     5
 11
260.3993551142813
 21
50.0
 31
0.0
100
AcDbText
  0
LINE
  5
2BC
330
A
100
AcDbEntity
  8
LAY-1
  6
Continuous
370
   100
100
AcDbLine
 10
405.9999996047682
 20
19.34321724906846
 30
0.0
 11
239.3333329381017
 21
19.34321066187762
 31
0.0
210
0.0
220
0.0
230
-1.0
  0
LINE
  5
2BD
330
A
100
AcDbEntity
  8
LAY-1
  6
Continuous
370
   100
100
AcDbLine
 10
405.9999992095367
 20
29.34321724906846
 30
0.0
 11
239.3333325428704
 21
29.34321066187761
 31
0.0
210
0.0
220
0.0
230
-1.0
  0
LINE
  5
2BE
330
A
100
AcDbEntity
  8
LAY-1
  6
Continuous
370
   100
100
AcDbLine
 10
405.9999988143056
 20
39.34321724906846
 30
0.0
 11
239.3333321476386
 21
39.34321066187759
 31
0.0
210
0.0
220
0.0
230
-1.0
  0
MTEXT
  5
2BF
330
A
100
AcDbEntity
  8
LAY-1
  6
Continuous
100
AcDbMText
 10
246.0919062296545
 20
28.81076108164469
 30
0.0
 40
3.0
 41
55.91528214553289
 71
     1
 72
     5
  1
{\fArial|b1|i0|c0|p34;PHENIX TOC IN TSUKUBA\P\fArial|b0|i0|c0|p34;\H0.6667x;Dept. of Physics , Tsukuba Univ.  Japan}
 73
     1
 44
1.0
  0
MTEXT
  5
2C0
330
A
100
AcDbEntity
  8
LAY-1
  6
Continuous
100
AcDbMText
 10
241.6541849772134
 20
17.87218040969849
 30
0.0
 40
2.5
 41
64.49488333333336
 71
     1
 72
     5
  1
{\fArial|b0|i0|c0|p34;JUL 31 2001\P\fArial|b1|i0|c0|p34;\H1.2x;CI \fMS UI Gothic|b1|i0|c0|p17; \fArial|b1|i0|c0|p34;INDUSTRIES, LTD. (JAPAN)}
 73
     1
 44
1.0
  0
MTEXT
  5
2C1
330
A
100
AcDbEntity
  8
LAY-1
  6
Continuous
100
AcDbMText
 10
273.9664103190103
 20
36.16126071161907
 30
0.0
 40
3.333333333333333
 41
16.66666666222933
 71
     1
 72
     5
  1
{\fMS UI Gothic|b0|i0|c0|p17;SCALE}
 73
     1
 44
1.0
  0
MTEXT
  5
2C2
330
A
100
AcDbEntity
  8
LAY-1
  6
Continuous
100
AcDbMText
 10
241.193758646647
 20
35.87228765832264
 30
0.0
 40
3.333333333333333
 41
13.28987733741945
 71
     1
 72
     5
  1
UNIT
 73
     1
 44
1.0
  0
LINE
  5
2C3
330
A
100
AcDbEntity
  8
LAY-1
  6
Continuous
370
   100
100
AcDbLine
 10
239.3333321476386
 20
39.34321066187759
 30
0.0
 11
239.3333333333332
 21
9.343210661877613
 31
0.0
210
0.0
220
0.0
230
-1.0
  0
LINE
  5
2C4
330
A
100
AcDbEntity
  8
LAY-1
  6
Continuous
370
   100
100
AcDbLine
 10
255.9999988143056
 20
39.34321132059666
 30
0.0
 11
255.999999209537
 21
29.3432113205967
 31
0.0
210
0.0
220
0.0
230
-1.0
  0
LINE
  5
2C5
330
A
100
AcDbEntity
  8
LAY-1
  6
Continuous
370
   100
100
AcDbLine
 10
272.6666654809722
 20
39.34321197931572
 30
0.0
 11
272.6666658762037
 21
29.34321197931577
 31
0.0
210
0.0
220
0.0
230
-1.0
  0
MTEXT
  5
2C6
330
A
100
AcDbEntity
  8
LAY-1
  6
Continuous
100
AcDbMText
 10
256.9995218912759
 20
32.05639404800415
 30
0.0
 40
1.666666666666666
 41
13.28988333333334
 71
     1
 72
     5
  1
{\fArial|b0|i0|c0|p34;MILLIMETERS}
 73
     1
 44
1.0
  0
MTEXT
  5
2C7
330
A
100
AcDbEntity
  8
LAY-1
  6
Continuous
100
AcDbMText
 10
260.032251993815
 20
37.90106537686664
 30
0.0
 40
3.333333333333333
 41
13.28988333333334
 71
     1
 72
     5
  1
{\fArial|b1|i1|c0|p34;mm}
 73
     1
 44
1.0
  0
MTEXT
  5
2C8
330
A
100
AcDbEntity
  8
LAY-1
  6
Continuous
100
AcDbMText
 10
307.618662516276
 20
28.19165621943157
 30
0.0
 40
3.0
 41
33.33333333333335
 71
     1
 72
     5
  1
PHENIX\PDRAWUNG NO.
 73
     1
 44
1.0
  0
MTEXT
  5
2C9
330
A
100
AcDbEntity
  8
LAY-1
  6
Continuous
100
AcDbMText
 10
307.5476989746093
 20
15.20569486167907
 30
0.0
 40
3.0
 41
31.89735
 71
     1
 72
     5
  1
DRAWING NO.
 73
     1
 44
1.0
  0
MTEXT
  5
2CA
330
A
100
AcDbEntity
  8
LAY-1
  6
Continuous
100
AcDbMText
 10
293.9405212402343
 20
35.73448950794221
 30
0.0
 40
3.333333333333333
 41
13.2899
 71
     1
 72
     5
  1
{\fArial|b1|i0|c0|p34;1:1}
 73
     1
 44
1.0
  0
LINE
  5
2CB
330
A
100
AcDbEntity
  8
LAY-1
  6
Continuous
370
   100
100
AcDbLine
 10
289.3333321476388
 20
39.34321263803481
 30
0.0
 11
289.3333325428703
 21
29.34321263803487
 31
0.0
210
0.0
220
0.0
230
-1.0
  0
LINE
  5
2CC
330
A
100
AcDbEntity
  8
LAY-1
  6
Continuous
370
   100
100
AcDbLine
 10
305.9999988143056
 20
39.34321329675393
 30
0.0
 11
305.9999988143056
 21
9.343206249068483
 31
0.0
210
0.0
220
0.0
230
-1.0
  0
LINE
  5
2CD
330
A
100
AcDbEntity
  8
LAY-1
  6
Continuous
100
AcDbLine
 10
339.333332147639
 20
39.34321329675393
 30
0.0
 11
339.333332147639
 21
9.343206249068483
 31
0.0
210
0.0
220
0.0
230
-1.0
  0
MTEXT
  5
2CE
330
A
100
AcDbEntity
  8
LAY-1
  6
Continuous
100
AcDbMText
 10
312.0488560994465
 20
35.92876870182038
 30
0.0
 40
3.333333333333333
 41
33.33333333333335
 71
     1
 72
     5
  1
TITLE
 73
     1
 44
1.0
  0
MTEXT
  5
2CF
330
A
100
AcDbEntity
  8
LAY-1
  6
Continuous
100
AcDbMText
 10
351.4463577270507
 20
27.28090610848745
 30
0.0
 40
5.0
 41
46.5857
 71
     1
 72
     5
  1
{\fArial|b1|i0|c0|p34;105-219-902}
 73
     1
 44
1.0
  0
MTEXT
  5
2D0
330
A
100
AcDbEntity
  8
LAY-1
  6
Continuous
100
AcDbMText
 10
345.1124215167656
 20
37.33257443541551
 30
0.0
 40
5.0
 41
56.9572
 71
     1
 72
     5
  1
{\fArial|b1|i0|c0|p34;T0 assemble 2}
 73
     1
 44
1.0
  0
MTEXT
  5
2D1
330
A
100
AcDbEntity
  8
LAY-1
  6
Continuous
100
AcDbMText
 10
361.7699762980143
 20
15.87078430997213
 30
0.0
 40
3.333333333333333
 41
17.9787
 71
     1
 72
     5
  1
048
 73
     1
 44
1.0
  0
LEADER
  5
2E9
330
A
100
AcDbEntity
  8
LAY-1
  6
Continuous
 62
     1
100
AcDbLeader
  3
STANDARD
 76
     3
 10
216.1819919893536
 20
191.9572263397331
 30
0.0
 10
202.8246635713947
 20
235.3990503397332
 30
0.0
 10
165.5162625905643
 20
235.3990503397332
 30
0.0
1001
ACAD
1000
DSTYLE
1002
{
1070
    41
1040
3.0
1070
     5
1000
_EX_NORM
1070
     6
1000
_EX_NORM
1070
     7
1000
_EX_NORM
1002
}
  0
TEXT
  5
2EA
330
A
100
AcDbEntity
  8
LAY-1
  6
Continuous
 62
     1
100
AcDbText
 10
167.6363325497232
 20
231.4572263397331
 30
0.0
 40
3.0
  1
105-219-012
 41
0.75
  7
EXCADSTD
 72
     5
 11
191.6363325497233
 21
231.4572263397331
 31
0.0
100
AcDbText
  0
TEXT
  5
2EB
330
A
100
AcDbEntity
  8
LAY-1
  6
Continuous
 62
     1
100
AcDbText
 10
169.2010431627076
 20
237.2401284877073
 30
0.0
 40
3.0
  1
fix bar
 50
1.195926843802126
 41
1.274270734656
  7
EXCADSTD
 72
     5
 11
193.1521145695185
 21
237.7401284877073
 31
0.0
100
AcDbText
  0
TEXT
  5
2FD
330
A
100
AcDbEntity
  8
LAY-1
  6
Continuous
 62
     1
100
AcDbText
 10
161.8314816313732
 20
62.62151725361491
 30
0.0
 40
3.0
  1
105-219-110
 41
0.9068014362058779
  7
EXCADSTD
 72
     5
 11
190.8491275899613
 21
62.62151725361491
 31
0.0
100
AcDbText
  0
ENDSEC
  0
SECTION
  2
OBJECTS
  0
DICTIONARY
  5
19
330
0
100
AcDbDictionary
281
     1
  3
ACAD_GROUP
350
1A
  3
ACAD_LAYOUT
350
25F
  3
ACAD_MLINESTYLE
350
1B
  3
ACAD_PLOTSETTINGS
350
260
  3
ACAD_PLOTSTYLENAME
350
25D
  3
ASE_INDEX_DICTIONARY
350
2D3
  0
DICTIONARY
  5
1A
102
{ACAD_REACTORS
330
19
102
}
330
19
100
AcDbDictionary
281
     1
  0
DICTIONARY
  5
25F
102
{ACAD_REACTORS
330
19
102
}
330
19
100
AcDbDictionary
281
     1
  3
Model
350
261
  3
ﾚｲｱｳﾄ1
350
262
  0
DICTIONARY
  5
1B
102
{ACAD_REACTORS
330
19
102
}
330
19
100
AcDbDictionary
281
     1
  3
STANDARD
350
1C
  0
DICTIONARY
  5
260
102
{ACAD_REACTORS
330
19
102
}
330
19
100
AcDbDictionary
281
     1
  0
ACDBDICTIONARYWDFLT
  5
25D
102
{ACAD_REACTORS
330
19
102
}
330
19
100
AcDbDictionary
281
     1
  3
Normal
350
25E
100
AcDbDictionaryWithDefault
340
25E
  0
DICTIONARY
  5
2D3
102
{ACAD_REACTORS
330
19
102
}
330
19
100
AcDbDictionary
281
     1
  3
ASEBlockHierarchyIndexRecord
350
2D5
1001
DCO15
1040
1413144236.89
  0
LAYOUT
  5
261
102
{ACAD_REACTORS
330
25F
102
}
330
25F
100
AcDbPlotSettings
  1

  2
Tektronix Phaser 850DP
  4

  6

 40
0.0
 41
0.0
 42
0.0
 43
0.0
 44
0.0
 45
0.0
 46
0.0
 47
0.0
 48
0.0
 49
0.0
140
0.0
141
0.0
142
1.0
143
1.0
 70
  1712
 72
     0
 73
     0
 74
     0
  7

 75
     0
147
1.0
148
0.0
149
0.0
100
AcDbLayout
  1
Model
 70
     1
 71
     0
 10
0.0
 20
0.0
 11
12.0
 21
9.0
 12
0.0
 22
0.0
 32
0.0
 14
0.0
 24
0.0
 34
0.0
 15
0.0
 25
0.0
 35
0.0
146
0.0
 13
0.0
 23
0.0
 33
0.0
 16
1.0
 26
0.0
 36
0.0
 17
0.0
 27
1.0
 37
0.0
 76
     0
330
A
  0
LAYOUT
  5
262
102
{ACAD_REACTORS
330
25F
102
}
330
25F
100
AcDbPlotSettings
  1

  2
Tektronix Phaser 850DP
  4

  6

 40
0.0
 41
0.0
 42
0.0
 43
0.0
 44
0.0
 45
0.0
 46
0.0
 47
0.0
 48
0.0
 49
0.0
140
0.0
141
0.0
142
1.0
143
1.0
 70
   688
 72
     0
 73
     0
 74
     5
  7

 75
    16
147
1.0
148
0.0
149
0.0
100
AcDbLayout
  1
ﾚｲｱｳﾄ1
 70
     0
 71
     1
 10
0.0
 20
0.0
 11
12.0
 21
9.0
 12
0.0
 22
0.0
 32
0.0
 14
1.000000000000000E+20
 24
1.000000000000000E+20
 34
1.000000000000000E+20
 15
-1.000000000000000E+20
 25
-1.000000000000000E+20
 35
-1.000000000000000E+20
146
0.0
 13
0.0
 23
0.0
 33
0.0
 16
1.0
 26
0.0
 36
0.0
 17
0.0
 27
1.0
 37
0.0
 76
     0
330
B
  0
MLINESTYLE
  5
1C
102
{ACAD_REACTORS
330
1B
102
}
330
1B
100
AcDbMlineStyle
  2
STANDARD
 70
     0
  3

 62
     0
 51
90.0
 52
90.0
 71
     2
 49
0.5
 62
   256
  6
BYLAYER
 49
-0.5
 62
   256
  6
BYLAYER
  0
ACDBPLACEHOLDER
  5
25E
102
{ACAD_REACTORS
330
25D
102
}
330
25D
  0
XRECORD
  5
2D5
102
{ACAD_REACTORS
330
2D3
102
}
330
2D3
100
AcDbXrecord
280
     1
  0
ENDSEC
  0
EOF
